0
SECTION
2
HEADER
9
$EXTMIN
10
0.033203125
20
0
30
0.5
9
$EXTMAX
10
3.5458984375
20
0.93359375
30
0.5
0
ENDSEC
0
SECTION
2
TABLES
0
TABLE
2
VPORT
0
VPORT
2
*ACTIVE
41
  1.000000
0
ENDTAB
0
TABLE
2
LAYER
0
LAYER
2
0
62
0
0
ENDTAB
0
ENDSEC
0
SECTION
2
BLOCKS
0
ENDSEC
0
SECTION
2
ENTITIES
0
LINE
8
0
62
0
10
0.033203
20
0.745117
30
0.500000
11
0.035156
21
0.778320
31
0.500000
0
LINE
8
0
62
0
10
0.035156
20
0.778320
30
0.500000
11
0.041016
21
0.808594
31
0.500000
0
LINE
8
0
62
0
10
0.041016
20
0.808594
30
0.500000
11
0.049805
21
0.836914
31
0.500000
0
LINE
8
0
62
0
10
0.049805
20
0.836914
30
0.500000
11
0.062500
21
0.861328
31
0.500000
0
LINE
8
0
62
0
10
0.062500
20
0.861328
30
0.500000
11
0.079102
21
0.883789
31
0.500000
0
LINE
8
0
62
0
10
0.079102
20
0.883789
30
0.500000
11
0.098633
21
0.903320
31
0.500000
0
LINE
8
0
62
0
10
0.098633
20
0.903320
30
0.500000
11
0.122070
21
0.918945
31
0.500000
0
LINE
8
0
62
0
10
0.122070
20
0.918945
30
0.500000
11
0.149414
21
0.933594
31
0.500000
0
LINE
8
0
62
0
10
0.149414
20
0.933594
30
0.500000
11
0.468750
21
0.933594
31
0.500000
0
LINE
8
0
62
0
10
0.468750
20
0.933594
30
0.500000
11
0.468750
21
0.773438
31
0.500000
0
LINE
8
0
62
0
10
0.468750
20
0.773438
30
0.500000
11
0.212891
21
0.773438
31
0.500000
0
LINE
8
0
62
0
10
0.212891
20
0.773438
30
0.500000
11
0.208984
21
0.765625
31
0.500000
0
LINE
8
0
62
0
10
0.208984
20
0.765625
30
0.500000
11
0.422852
21
0.375977
31
0.500000
0
LINE
8
0
62
0
10
0.422852
20
0.375977
30
0.500000
11
0.437500
21
0.347656
31
0.500000
0
LINE
8
0
62
0
10
0.437500
20
0.347656
30
0.500000
11
0.451172
21
0.320313
31
0.500000
0
LINE
8
0
62
0
10
0.451172
20
0.320313
30
0.500000
11
0.461914
21
0.295898
31
0.500000
0
LINE
8
0
62
0
10
0.461914
20
0.295898
30
0.500000
11
0.471680
21
0.272461
31
0.500000
0
LINE
8
0
62
0
10
0.471680
20
0.272461
30
0.500000
11
0.478516
21
0.250977
31
0.500000
0
LINE
8
0
62
0
10
0.478516
20
0.250977
30
0.500000
11
0.483398
21
0.231445
31
0.500000
0
LINE
8
0
62
0
10
0.483398
20
0.231445
30
0.500000
11
0.487305
21
0.213867
31
0.500000
0
LINE
8
0
62
0
10
0.487305
20
0.213867
30
0.500000
11
0.488281
21
0.197266
31
0.500000
0
LINE
8
0
62
0
10
0.488281
20
0.197266
30
0.500000
11
0.486328
21
0.165039
31
0.500000
0
LINE
8
0
62
0
10
0.486328
20
0.165039
30
0.500000
11
0.482422
21
0.134766
31
0.500000
0
LINE
8
0
62
0
10
0.482422
20
0.134766
30
0.500000
11
0.475586
21
0.106445
31
0.500000
0
LINE
8
0
62
0
10
0.475586
20
0.106445
30
0.500000
11
0.465820
21
0.081055
31
0.500000
0
LINE
8
0
62
0
10
0.465820
20
0.081055
30
0.500000
11
0.453125
21
0.056641
31
0.500000
0
LINE
8
0
62
0
10
0.453125
20
0.056641
30
0.500000
11
0.437500
21
0.036133
31
0.500000
0
LINE
8
0
62
0
10
0.437500
20
0.036133
30
0.500000
11
0.419922
21
0.016602
31
0.500000
0
LINE
8
0
62
0
10
0.419922
20
0.016602
30
0.500000
11
0.398438
21
0.000000
31
0.500000
0
LINE
8
0
62
0
10
0.398438
20
0.000000
30
0.500000
11
0.044922
21
0.000000
31
0.500000
0
LINE
8
0
62
0
10
0.044922
20
0.000000
30
0.500000
11
0.044922
21
0.154297
31
0.500000
0
LINE
8
0
62
0
10
0.044922
20
0.154297
30
0.500000
11
0.321289
21
0.154297
31
0.500000
0
LINE
8
0
62
0
10
0.321289
20
0.154297
30
0.500000
11
0.325195
21
0.163086
31
0.500000
0
LINE
8
0
62
0
10
0.325195
20
0.163086
30
0.500000
11
0.084961
21
0.592773
31
0.500000
0
LINE
8
0
62
0
10
0.084961
20
0.592773
30
0.500000
11
0.073242
21
0.616211
31
0.500000
0
LINE
8
0
62
0
10
0.073242
20
0.616211
30
0.500000
11
0.062500
21
0.637695
31
0.500000
0
LINE
8
0
62
0
10
0.062500
20
0.637695
30
0.500000
11
0.053711
21
0.658203
31
0.500000
0
LINE
8
0
62
0
10
0.053711
20
0.658203
30
0.500000
11
0.045898
21
0.677734
31
0.500000
0
LINE
8
0
62
0
10
0.045898
20
0.677734
30
0.500000
11
0.041016
21
0.696289
31
0.500000
0
LINE
8
0
62
0
10
0.041016
20
0.696289
30
0.500000
11
0.036133
21
0.713867
31
0.500000
0
LINE
8
0
62
0
10
0.036133
20
0.713867
30
0.500000
11
0.034180
21
0.729492
31
0.500000
0
LINE
8
0
62
0
10
0.034180
20
0.729492
30
0.500000
11
0.033203
21
0.745117
31
0.500000
0
LINE
8
0
62
0
10
0.737305
20
0.402344
30
0.500000
11
0.738281
21
0.412109
31
0.500000
0
LINE
8
0
62
0
10
0.738281
20
0.412109
30
0.500000
11
0.739258
21
0.421875
31
0.500000
0
LINE
8
0
62
0
10
0.739258
20
0.421875
30
0.500000
11
0.740234
21
0.432617
31
0.500000
0
LINE
8
0
62
0
10
0.740234
20
0.432617
30
0.500000
11
0.742188
21
0.443359
31
0.500000
0
LINE
8
0
62
0
10
0.742188
20
0.443359
30
0.500000
11
0.745117
21
0.453125
31
0.500000
0
LINE
8
0
62
0
10
0.745117
20
0.453125
30
0.500000
11
0.747070
21
0.463867
31
0.500000
0
LINE
8
0
62
0
10
0.747070
20
0.463867
30
0.500000
11
0.750000
21
0.474609
31
0.500000
0
LINE
8
0
62
0
10
0.750000
20
0.474609
30
0.500000
11
0.753906
21
0.485352
31
0.500000
0
LINE
8
0
62
0
10
0.753906
20
0.485352
30
0.500000
11
0.756836
21
0.495117
31
0.500000
0
LINE
8
0
62
0
10
0.756836
20
0.495117
30
0.500000
11
0.760742
21
0.503906
31
0.500000
0
LINE
8
0
62
0
10
0.760742
20
0.503906
30
0.500000
11
0.764648
21
0.512695
31
0.500000
0
LINE
8
0
62
0
10
0.764648
20
0.512695
30
0.500000
11
0.768555
21
0.520508
31
0.500000
0
LINE
8
0
62
0
10
0.768555
20
0.520508
30
0.500000
11
0.773438
21
0.528320
31
0.500000
0
LINE
8
0
62
0
10
0.773438
20
0.528320
30
0.500000
11
0.778320
21
0.535156
31
0.500000
0
LINE
8
0
62
0
10
0.778320
20
0.535156
30
0.500000
11
0.783203
21
0.541016
31
0.500000
0
LINE
8
0
62
0
10
0.783203
20
0.541016
30
0.500000
11
0.882813
21
0.541016
31
0.500000
0
LINE
8
0
62
0
10
0.882813
20
0.541016
30
0.500000
11
0.887695
21
0.535156
31
0.500000
0
LINE
8
0
62
0
10
0.887695
20
0.535156
30
0.500000
11
0.892578
21
0.528320
31
0.500000
0
LINE
8
0
62
0
10
0.892578
20
0.528320
30
0.500000
11
0.897461
21
0.521484
31
0.500000
0
LINE
8
0
62
0
10
0.897461
20
0.521484
30
0.500000
11
0.902344
21
0.513672
31
0.500000
0
LINE
8
0
62
0
10
0.902344
20
0.513672
30
0.500000
11
0.906250
21
0.504883
31
0.500000
0
LINE
8
0
62
0
10
0.906250
20
0.504883
30
0.500000
11
0.910156
21
0.495117
31
0.500000
0
LINE
8
0
62
0
10
0.910156
20
0.495117
30
0.500000
11
0.914063
21
0.485352
31
0.500000
0
LINE
8
0
62
0
10
0.914063
20
0.485352
30
0.500000
11
0.917969
21
0.475586
31
0.500000
0
LINE
8
0
62
0
10
0.917969
20
0.475586
30
0.500000
11
0.920898
21
0.464844
31
0.500000
0
LINE
8
0
62
0
10
0.920898
20
0.464844
30
0.500000
11
0.922852
21
0.454102
31
0.500000
0
LINE
8
0
62
0
10
0.922852
20
0.454102
30
0.500000
11
0.924805
21
0.443359
31
0.500000
0
LINE
8
0
62
0
10
0.924805
20
0.443359
30
0.500000
11
0.926758
21
0.432617
31
0.500000
0
LINE
8
0
62
0
10
0.926758
20
0.432617
30
0.500000
11
0.927734
21
0.422852
31
0.500000
0
LINE
8
0
62
0
10
0.927734
20
0.422852
30
0.500000
11
0.928711
21
0.412109
31
0.500000
0
LINE
8
0
62
0
10
0.928711
20
0.412109
30
0.500000
11
0.928711
21
0.402344
31
0.500000
0
LINE
8
0
62
0
10
0.928711
20
0.402344
30
0.500000
11
0.927734
21
0.391602
31
0.500000
0
LINE
8
0
62
0
10
0.927734
20
0.391602
30
0.500000
11
0.737305
21
0.391602
31
0.500000
0
LINE
8
0
62
0
10
0.737305
20
0.391602
30
0.500000
11
0.737305
21
0.402344
31
0.500000
0
LINE
8
0
62
0
10
0.558594
20
0.395508
30
0.500000
11
0.566406
21
0.445313
31
0.500000
0
LINE
8
0
62
0
10
0.566406
20
0.445313
30
0.500000
11
0.579102
21
0.493164
31
0.500000
0
LINE
8
0
62
0
10
0.579102
20
0.493164
30
0.500000
11
0.597656
21
0.536133
31
0.500000
0
LINE
8
0
62
0
10
0.597656
20
0.536133
30
0.500000
11
0.621094
21
0.577148
31
0.500000
0
LINE
8
0
62
0
10
0.621094
20
0.577148
30
0.500000
11
0.649414
21
0.615234
31
0.500000
0
LINE
8
0
62
0
10
0.649414
20
0.615234
30
0.500000
11
0.682617
21
0.649414
31
0.500000
0
LINE
8
0
62
0
10
0.682617
20
0.649414
30
0.500000
11
0.721680
21
0.681641
31
0.500000
0
LINE
8
0
62
0
10
0.721680
20
0.681641
30
0.500000
11
0.937500
21
0.681641
31
0.500000
0
LINE
8
0
62
0
10
0.937500
20
0.681641
30
0.500000
11
0.958984
21
0.665039
31
0.500000
0
LINE
8
0
62
0
10
0.958984
20
0.665039
30
0.500000
11
0.978516
21
0.648438
31
0.500000
0
LINE
8
0
62
0
10
0.978516
20
0.648438
30
0.500000
11
0.996094
21
0.630859
31
0.500000
0
LINE
8
0
62
0
10
0.996094
20
0.630859
30
0.500000
11
1.012695
21
0.614258
31
0.500000
0
LINE
8
0
62
0
10
1.012695
20
0.614258
30
0.500000
11
1.026367
21
0.596680
31
0.500000
0
LINE
8
0
62
0
10
1.026367
20
0.596680
30
0.500000
11
1.039063
21
0.579102
31
0.500000
0
LINE
8
0
62
0
10
1.039063
20
0.579102
30
0.500000
11
1.049805
21
0.560547
31
0.500000
0
LINE
8
0
62
0
10
1.049805
20
0.560547
30
0.500000
11
1.058594
21
0.542969
31
0.500000
0
LINE
8
0
62
0
10
1.058594
20
0.542969
30
0.500000
11
1.066406
21
0.524414
31
0.500000
0
LINE
8
0
62
0
10
1.066406
20
0.524414
30
0.500000
11
1.073242
21
0.505859
31
0.500000
0
LINE
8
0
62
0
10
1.073242
20
0.505859
30
0.500000
11
1.078125
21
0.487305
31
0.500000
0
LINE
8
0
62
0
10
1.078125
20
0.487305
30
0.500000
11
1.083008
21
0.468750
31
0.500000
0
LINE
8
0
62
0
10
1.083008
20
0.468750
30
0.500000
11
1.085938
21
0.450195
31
0.500000
0
LINE
8
0
62
0
10
1.085938
20
0.450195
30
0.500000
11
1.088867
21
0.431641
31
0.500000
0
LINE
8
0
62
0
10
1.088867
20
0.431641
30
0.500000
11
1.089844
21
0.413086
31
0.500000
0
LINE
8
0
62
0
10
1.089844
20
0.413086
30
0.500000
11
1.090820
21
0.394531
31
0.500000
0
LINE
8
0
62
0
10
1.090820
20
0.394531
30
0.500000
11
1.090820
21
0.375977
31
0.500000
0
LINE
8
0
62
0
10
1.090820
20
0.375977
30
0.500000
11
1.089844
21
0.358398
31
0.500000
0
LINE
8
0
62
0
10
1.089844
20
0.358398
30
0.500000
11
1.088867
21
0.341797
31
0.500000
0
LINE
8
0
62
0
10
1.088867
20
0.341797
30
0.500000
11
1.087891
21
0.325195
31
0.500000
0
LINE
8
0
62
0
10
1.087891
20
0.325195
30
0.500000
11
1.085938
21
0.309570
31
0.500000
0
LINE
8
0
62
0
10
1.085938
20
0.309570
30
0.500000
11
1.083984
21
0.294922
31
0.500000
0
LINE
8
0
62
0
10
1.083984
20
0.294922
30
0.500000
11
1.082031
21
0.280273
31
0.500000
0
LINE
8
0
62
0
10
1.082031
20
0.280273
30
0.500000
11
1.079102
21
0.266602
31
0.500000
0
LINE
8
0
62
0
10
1.079102
20
0.266602
30
0.500000
11
0.747070
21
0.266602
31
0.500000
0
LINE
8
0
62
0
10
0.747070
20
0.266602
30
0.500000
11
0.748047
21
0.258789
31
0.500000
0
LINE
8
0
62
0
10
0.748047
20
0.258789
30
0.500000
11
0.750000
21
0.250977
31
0.500000
0
LINE
8
0
62
0
10
0.750000
20
0.250977
30
0.500000
11
0.751953
21
0.242188
31
0.500000
0
LINE
8
0
62
0
10
0.751953
20
0.242188
30
0.500000
11
0.754883
21
0.233398
31
0.500000
0
LINE
8
0
62
0
10
0.754883
20
0.233398
30
0.500000
11
0.757813
21
0.224609
31
0.500000
0
LINE
8
0
62
0
10
0.757813
20
0.224609
30
0.500000
11
0.761719
21
0.215820
31
0.500000
0
LINE
8
0
62
0
10
0.761719
20
0.215820
30
0.500000
11
0.765625
21
0.206055
31
0.500000
0
LINE
8
0
62
0
10
0.765625
20
0.206055
30
0.500000
11
0.770508
21
0.196289
31
0.500000
0
LINE
8
0
62
0
10
0.770508
20
0.196289
30
0.500000
11
0.775391
21
0.187500
31
0.500000
0
LINE
8
0
62
0
10
0.775391
20
0.187500
30
0.500000
11
0.780273
21
0.178711
31
0.500000
0
LINE
8
0
62
0
10
0.780273
20
0.178711
30
0.500000
11
0.785156
21
0.169922
31
0.500000
0
LINE
8
0
62
0
10
0.785156
20
0.169922
30
0.500000
11
0.790039
21
0.163086
31
0.500000
0
LINE
8
0
62
0
10
0.790039
20
0.163086
30
0.500000
11
0.795898
21
0.156250
31
0.500000
0
LINE
8
0
62
0
10
0.795898
20
0.156250
30
0.500000
11
0.800781
21
0.150391
31
0.500000
0
LINE
8
0
62
0
10
0.800781
20
0.150391
30
0.500000
11
0.806641
21
0.144531
31
0.500000
0
LINE
8
0
62
0
10
0.806641
20
0.144531
30
0.500000
11
0.812500
21
0.139648
31
0.500000
0
LINE
8
0
62
0
10
0.812500
20
0.139648
30
0.500000
11
1.064453
21
0.139648
31
0.500000
0
LINE
8
0
62
0
10
1.064453
20
0.139648
30
0.500000
11
1.064453
21
0.000000
31
0.500000
0
LINE
8
0
62
0
10
1.064453
20
0.000000
30
0.500000
11
0.725586
21
0.000000
31
0.500000
0
LINE
8
0
62
0
10
0.725586
20
0.000000
30
0.500000
11
0.703125
21
0.016602
31
0.500000
0
LINE
8
0
62
0
10
0.703125
20
0.016602
30
0.500000
11
0.682617
21
0.033203
31
0.500000
0
LINE
8
0
62
0
10
0.682617
20
0.033203
30
0.500000
11
0.663086
21
0.050781
31
0.500000
0
LINE
8
0
62
0
10
0.663086
20
0.050781
30
0.500000
11
0.646484
21
0.070313
31
0.500000
0
LINE
8
0
62
0
10
0.646484
20
0.070313
30
0.500000
11
0.630859
21
0.089844
31
0.500000
0
LINE
8
0
62
0
10
0.630859
20
0.089844
30
0.500000
11
0.616211
21
0.111328
31
0.500000
0
LINE
8
0
62
0
10
0.616211
20
0.111328
30
0.500000
11
0.604492
21
0.132813
31
0.500000
0
LINE
8
0
62
0
10
0.604492
20
0.132813
30
0.500000
11
0.593750
21
0.155273
31
0.500000
0
LINE
8
0
62
0
10
0.593750
20
0.155273
30
0.500000
11
0.584961
21
0.178711
31
0.500000
0
LINE
8
0
62
0
10
0.584961
20
0.178711
30
0.500000
11
0.577148
21
0.202148
31
0.500000
0
LINE
8
0
62
0
10
0.577148
20
0.202148
30
0.500000
11
0.571289
21
0.224609
31
0.500000
0
LINE
8
0
62
0
10
0.571289
20
0.224609
30
0.500000
11
0.565430
21
0.248047
31
0.500000
0
LINE
8
0
62
0
10
0.565430
20
0.248047
30
0.500000
11
0.561523
21
0.271484
31
0.500000
0
LINE
8
0
62
0
10
0.561523
20
0.271484
30
0.500000
11
0.558594
21
0.294922
31
0.500000
0
LINE
8
0
62
0
10
0.558594
20
0.294922
30
0.500000
11
0.556641
21
0.319336
31
0.500000
0
LINE
8
0
62
0
10
0.556641
20
0.319336
30
0.500000
11
0.556641
21
0.342773
31
0.500000
0
LINE
8
0
62
0
10
0.556641
20
0.342773
30
0.500000
11
0.558594
21
0.395508
31
0.500000
0
LINE
8
0
62
0
10
1.181641
20
0.000000
30
0.500000
11
1.181641
21
0.681641
31
0.500000
0
LINE
8
0
62
0
10
1.181641
20
0.681641
30
0.500000
11
1.308594
21
0.681641
31
0.500000
0
LINE
8
0
62
0
10
1.308594
20
0.681641
30
0.500000
11
1.341797
21
0.609375
31
0.500000
0
LINE
8
0
62
0
10
1.341797
20
0.609375
30
0.500000
11
1.355469
21
0.625977
31
0.500000
0
LINE
8
0
62
0
10
1.355469
20
0.625977
30
0.500000
11
1.370117
21
0.640625
31
0.500000
0
LINE
8
0
62
0
10
1.370117
20
0.640625
30
0.500000
11
1.385742
21
0.653320
31
0.500000
0
LINE
8
0
62
0
10
1.385742
20
0.653320
30
0.500000
11
1.402344
21
0.663086
31
0.500000
0
LINE
8
0
62
0
10
1.402344
20
0.663086
30
0.500000
11
1.418945
21
0.670898
31
0.500000
0
LINE
8
0
62
0
10
1.418945
20
0.670898
30
0.500000
11
1.437500
21
0.676758
31
0.500000
0
LINE
8
0
62
0
10
1.437500
20
0.676758
30
0.500000
11
1.456055
21
0.679688
31
0.500000
0
LINE
8
0
62
0
10
1.456055
20
0.679688
30
0.500000
11
1.476563
21
0.681641
31
0.500000
0
LINE
8
0
62
0
10
1.476563
20
0.681641
30
0.500000
11
1.528320
21
0.681641
31
0.500000
0
LINE
8
0
62
0
10
1.528320
20
0.681641
30
0.500000
11
1.528320
21
0.502930
31
0.500000
0
LINE
8
0
62
0
10
1.528320
20
0.502930
30
0.500000
11
1.359375
21
0.502930
31
0.500000
0
LINE
8
0
62
0
10
1.359375
20
0.502930
30
0.500000
11
1.359375
21
0.000000
31
0.500000
0
LINE
8
0
62
0
10
1.359375
20
0.000000
30
0.500000
11
1.181641
21
0.000000
31
0.500000
0
LINE
8
0
62
0
10
1.604492
20
0.933594
30
0.500000
11
1.780273
21
0.933594
31
0.500000
0
LINE
8
0
62
0
10
1.780273
20
0.933594
30
0.500000
11
1.780273
21
0.752930
31
0.500000
0
LINE
8
0
62
0
10
1.780273
20
0.752930
30
0.500000
11
1.604492
21
0.752930
31
0.500000
0
LINE
8
0
62
0
10
1.604492
20
0.752930
30
0.500000
11
1.604492
21
0.933594
31
0.500000
0
LINE
8
0
62
0
10
1.604492
20
0.000000
30
0.500000
11
1.604492
21
0.681641
31
0.500000
0
LINE
8
0
62
0
10
1.604492
20
0.681641
30
0.500000
11
1.780273
21
0.681641
31
0.500000
0
LINE
8
0
62
0
10
1.780273
20
0.681641
30
0.500000
11
1.780273
21
0.000000
31
0.500000
0
LINE
8
0
62
0
10
1.780273
20
0.000000
30
0.500000
11
1.604492
21
0.000000
31
0.500000
0
LINE
8
0
62
0
10
1.876953
20
0.338867
30
0.500000
11
1.876953
21
0.365234
31
0.500000
0
LINE
8
0
62
0
10
1.876953
20
0.365234
30
0.500000
11
1.877930
21
0.390625
31
0.500000
0
LINE
8
0
62
0
10
1.877930
20
0.390625
30
0.500000
11
1.880859
21
0.416016
31
0.500000
0
LINE
8
0
62
0
10
1.880859
20
0.416016
30
0.500000
11
1.883789
21
0.439453
31
0.500000
0
LINE
8
0
62
0
10
1.883789
20
0.439453
30
0.500000
11
1.888672
21
0.462891
31
0.500000
0
LINE
8
0
62
0
10
1.888672
20
0.462891
30
0.500000
11
1.893555
21
0.484375
31
0.500000
0
LINE
8
0
62
0
10
1.893555
20
0.484375
30
0.500000
11
1.899414
21
0.505859
31
0.500000
0
LINE
8
0
62
0
10
1.899414
20
0.505859
30
0.500000
11
1.906250
21
0.526367
31
0.500000
0
LINE
8
0
62
0
10
1.906250
20
0.526367
30
0.500000
11
1.915039
21
0.546875
31
0.500000
0
LINE
8
0
62
0
10
1.915039
20
0.546875
30
0.500000
11
1.923828
21
0.566406
31
0.500000
0
LINE
8
0
62
0
10
1.923828
20
0.566406
30
0.500000
11
1.933594
21
0.585938
31
0.500000
0
LINE
8
0
62
0
10
1.933594
20
0.585938
30
0.500000
11
1.945313
21
0.605469
31
0.500000
0
LINE
8
0
62
0
10
1.945313
20
0.605469
30
0.500000
11
1.958008
21
0.624023
31
0.500000
0
LINE
8
0
62
0
10
1.958008
20
0.624023
30
0.500000
11
1.971680
21
0.643555
31
0.500000
0
LINE
8
0
62
0
10
1.971680
20
0.643555
30
0.500000
11
1.986328
21
0.662109
31
0.500000
0
LINE
8
0
62
0
10
1.986328
20
0.662109
30
0.500000
11
2.001953
21
0.681641
31
0.500000
0
LINE
8
0
62
0
10
2.001953
20
0.681641
30
0.500000
11
2.313477
21
0.681641
31
0.500000
0
LINE
8
0
62
0
10
2.313477
20
0.681641
30
0.500000
11
2.330078
21
0.661133
31
0.500000
0
LINE
8
0
62
0
10
2.330078
20
0.661133
30
0.500000
11
2.345703
21
0.641602
31
0.500000
0
LINE
8
0
62
0
10
2.345703
20
0.641602
30
0.500000
11
2.359375
21
0.622070
31
0.500000
0
LINE
8
0
62
0
10
2.359375
20
0.622070
30
0.500000
11
2.372070
21
0.602539
31
0.500000
0
LINE
8
0
62
0
10
2.372070
20
0.602539
30
0.500000
11
2.382813
21
0.583008
31
0.500000
0
LINE
8
0
62
0
10
2.382813
20
0.583008
30
0.500000
11
2.392578
21
0.563477
31
0.500000
0
LINE
8
0
62
0
10
2.392578
20
0.563477
30
0.500000
11
2.401367
21
0.544922
31
0.500000
0
LINE
8
0
62
0
10
2.401367
20
0.544922
30
0.500000
11
2.408203
21
0.526367
31
0.500000
0
LINE
8
0
62
0
10
2.408203
20
0.526367
30
0.500000
11
2.414063
21
0.506836
31
0.500000
0
LINE
8
0
62
0
10
2.414063
20
0.506836
30
0.500000
11
2.419922
21
0.486328
31
0.500000
0
LINE
8
0
62
0
10
2.419922
20
0.486328
30
0.500000
11
2.423828
21
0.463867
31
0.500000
0
LINE
8
0
62
0
10
2.423828
20
0.463867
30
0.500000
11
2.427734
21
0.441406
31
0.500000
0
LINE
8
0
62
0
10
2.427734
20
0.441406
30
0.500000
11
2.430664
21
0.416992
31
0.500000
0
LINE
8
0
62
0
10
2.430664
20
0.416992
30
0.500000
11
2.432617
21
0.392578
31
0.500000
0
LINE
8
0
62
0
10
2.432617
20
0.392578
30
0.500000
11
2.433594
21
0.366211
31
0.500000
0
LINE
8
0
62
0
10
2.433594
20
0.366211
30
0.500000
11
2.433594
21
0.338867
31
0.500000
0
LINE
8
0
62
0
10
2.433594
20
0.338867
30
0.500000
11
2.431641
21
0.286133
31
0.500000
0
LINE
8
0
62
0
10
2.431641
20
0.286133
30
0.500000
11
2.425781
21
0.237305
31
0.500000
0
LINE
8
0
62
0
10
2.425781
20
0.237305
30
0.500000
11
2.415039
21
0.190430
31
0.500000
0
LINE
8
0
62
0
10
2.415039
20
0.190430
30
0.500000
11
2.400391
21
0.146484
31
0.500000
0
LINE
8
0
62
0
10
2.400391
20
0.146484
30
0.500000
11
2.381836
21
0.105469
31
0.500000
0
LINE
8
0
62
0
10
2.381836
20
0.105469
30
0.500000
11
2.358398
21
0.067383
31
0.500000
0
LINE
8
0
62
0
10
2.358398
20
0.067383
30
0.500000
11
2.332031
21
0.032227
31
0.500000
0
LINE
8
0
62
0
10
2.332031
20
0.032227
30
0.500000
11
2.300781
21
0.000000
31
0.500000
0
LINE
8
0
62
0
10
2.300781
20
0.000000
30
0.500000
11
2.009766
21
0.000000
31
0.500000
0
LINE
8
0
62
0
10
2.009766
20
0.000000
30
0.500000
11
1.978516
21
0.032227
31
0.500000
0
LINE
8
0
62
0
10
1.978516
20
0.032227
30
0.500000
11
1.951172
21
0.067383
31
0.500000
0
LINE
8
0
62
0
10
1.951172
20
0.067383
30
0.500000
11
1.928711
21
0.105469
31
0.500000
0
LINE
8
0
62
0
10
1.928711
20
0.105469
30
0.500000
11
1.910156
21
0.146484
31
0.500000
0
LINE
8
0
62
0
10
1.910156
20
0.146484
30
0.500000
11
1.895508
21
0.190430
31
0.500000
0
LINE
8
0
62
0
10
1.895508
20
0.190430
30
0.500000
11
1.884766
21
0.237305
31
0.500000
0
LINE
8
0
62
0
10
1.884766
20
0.237305
30
0.500000
11
1.878906
21
0.286133
31
0.500000
0
LINE
8
0
62
0
10
1.878906
20
0.286133
30
0.500000
11
1.876953
21
0.338867
31
0.500000
0
LINE
8
0
62
0
10
2.056641
20
0.348633
30
0.500000
11
2.057617
21
0.378906
31
0.500000
0
LINE
8
0
62
0
10
2.057617
20
0.378906
30
0.500000
11
2.059570
21
0.407227
31
0.500000
0
LINE
8
0
62
0
10
2.059570
20
0.407227
30
0.500000
11
2.063477
21
0.434570
31
0.500000
0
LINE
8
0
62
0
10
2.063477
20
0.434570
30
0.500000
11
2.068359
21
0.458984
31
0.500000
0
LINE
8
0
62
0
10
2.068359
20
0.458984
30
0.500000
11
2.075195
21
0.482422
31
0.500000
0
LINE
8
0
62
0
10
2.075195
20
0.482422
30
0.500000
11
2.083984
21
0.503906
31
0.500000
0
LINE
8
0
62
0
10
2.083984
20
0.503906
30
0.500000
11
2.092773
21
0.523438
31
0.500000
0
LINE
8
0
62
0
10
2.092773
20
0.523438
30
0.500000
11
2.104492
21
0.541016
31
0.500000
0
LINE
8
0
62
0
10
2.104492
20
0.541016
30
0.500000
11
2.204102
21
0.541016
31
0.500000
0
LINE
8
0
62
0
10
2.204102
20
0.541016
30
0.500000
11
2.215820
21
0.522461
31
0.500000
0
LINE
8
0
62
0
10
2.215820
20
0.522461
30
0.500000
11
2.225586
21
0.502930
31
0.500000
0
LINE
8
0
62
0
10
2.225586
20
0.502930
30
0.500000
11
2.234375
21
0.481445
31
0.500000
0
LINE
8
0
62
0
10
2.234375
20
0.481445
30
0.500000
11
2.241211
21
0.458984
31
0.500000
0
LINE
8
0
62
0
10
2.241211
20
0.458984
30
0.500000
11
2.247070
21
0.434570
31
0.500000
0
LINE
8
0
62
0
10
2.247070
20
0.434570
30
0.500000
11
2.250977
21
0.408203
31
0.500000
0
LINE
8
0
62
0
10
2.250977
20
0.408203
30
0.500000
11
2.252930
21
0.380859
31
0.500000
0
LINE
8
0
62
0
10
2.252930
20
0.380859
30
0.500000
11
2.253906
21
0.351563
31
0.500000
0
LINE
8
0
62
0
10
2.253906
20
0.351563
30
0.500000
11
2.252930
21
0.322266
31
0.500000
0
LINE
8
0
62
0
10
2.252930
20
0.322266
30
0.500000
11
2.250977
21
0.293945
31
0.500000
0
LINE
8
0
62
0
10
2.250977
20
0.293945
30
0.500000
11
2.247070
21
0.266602
31
0.500000
0
LINE
8
0
62
0
10
2.247070
20
0.266602
30
0.500000
11
2.242188
21
0.239258
31
0.500000
0
LINE
8
0
62
0
10
2.242188
20
0.239258
30
0.500000
11
2.235352
21
0.213867
31
0.500000
0
LINE
8
0
62
0
10
2.235352
20
0.213867
30
0.500000
11
2.226563
21
0.188477
31
0.500000
0
LINE
8
0
62
0
10
2.226563
20
0.188477
30
0.500000
11
2.216797
21
0.164063
31
0.500000
0
LINE
8
0
62
0
10
2.216797
20
0.164063
30
0.500000
11
2.206055
21
0.139648
31
0.500000
0
LINE
8
0
62
0
10
2.206055
20
0.139648
30
0.500000
11
2.104492
21
0.139648
31
0.500000
0
LINE
8
0
62
0
10
2.104492
20
0.139648
30
0.500000
11
2.092773
21
0.161133
31
0.500000
0
LINE
8
0
62
0
10
2.092773
20
0.161133
30
0.500000
11
2.083984
21
0.184570
31
0.500000
0
LINE
8
0
62
0
10
2.083984
20
0.184570
30
0.500000
11
2.075195
21
0.208984
31
0.500000
0
LINE
8
0
62
0
10
2.075195
20
0.208984
30
0.500000
11
2.068359
21
0.234375
31
0.500000
0
LINE
8
0
62
0
10
2.068359
20
0.234375
30
0.500000
11
2.063477
21
0.260742
31
0.500000
0
LINE
8
0
62
0
10
2.063477
20
0.260742
30
0.500000
11
2.059570
21
0.289063
31
0.500000
0
LINE
8
0
62
0
10
2.059570
20
0.289063
30
0.500000
11
2.057617
21
0.318359
31
0.500000
0
LINE
8
0
62
0
10
2.057617
20
0.318359
30
0.500000
11
2.056641
21
0.348633
31
0.500000
0
LINE
8
0
62
0
10
2.524414
20
0.335938
30
0.500000
11
2.524414
21
0.681641
31
0.500000
0
LINE
8
0
62
0
10
2.524414
20
0.681641
30
0.500000
11
2.702148
21
0.681641
31
0.500000
0
LINE
8
0
62
0
10
2.702148
20
0.681641
30
0.500000
11
2.702148
21
0.322266
31
0.500000
0
LINE
8
0
62
0
10
2.702148
20
0.322266
30
0.500000
11
2.703125
21
0.292969
31
0.500000
0
LINE
8
0
62
0
10
2.703125
20
0.292969
30
0.500000
11
2.705078
21
0.265625
31
0.500000
0
LINE
8
0
62
0
10
2.705078
20
0.265625
30
0.500000
11
2.708984
21
0.240234
31
0.500000
0
LINE
8
0
62
0
10
2.708984
20
0.240234
30
0.500000
11
2.713867
21
0.215820
31
0.500000
0
LINE
8
0
62
0
10
2.713867
20
0.215820
30
0.500000
11
2.720703
21
0.194336
31
0.500000
0
LINE
8
0
62
0
10
2.720703
20
0.194336
30
0.500000
11
2.728516
21
0.174805
31
0.500000
0
LINE
8
0
62
0
10
2.728516
20
0.174805
30
0.500000
11
2.738281
21
0.156250
31
0.500000
0
LINE
8
0
62
0
10
2.738281
20
0.156250
30
0.500000
11
2.750000
21
0.139648
31
0.500000
0
LINE
8
0
62
0
10
2.750000
20
0.139648
30
0.500000
11
2.874023
21
0.139648
31
0.500000
0
LINE
8
0
62
0
10
2.874023
20
0.139648
30
0.500000
11
2.874023
21
0.681641
31
0.500000
0
LINE
8
0
62
0
10
2.874023
20
0.681641
30
0.500000
11
3.050781
21
0.681641
31
0.500000
0
LINE
8
0
62
0
10
3.050781
20
0.681641
30
0.500000
11
3.050781
21
0.000000
31
0.500000
0
LINE
8
0
62
0
10
3.050781
20
0.000000
30
0.500000
11
2.911133
21
0.000000
31
0.500000
0
LINE
8
0
62
0
10
2.911133
20
0.000000
30
0.500000
11
2.887695
21
0.047852
31
0.500000
0
LINE
8
0
62
0
10
2.887695
20
0.047852
30
0.500000
11
2.874023
21
0.037109
31
0.500000
0
LINE
8
0
62
0
10
2.874023
20
0.037109
30
0.500000
11
2.860352
21
0.027344
31
0.500000
0
LINE
8
0
62
0
10
2.860352
20
0.027344
30
0.500000
11
2.846680
21
0.018555
31
0.500000
0
LINE
8
0
62
0
10
2.846680
20
0.018555
30
0.500000
11
2.832031
21
0.011719
31
0.500000
0
LINE
8
0
62
0
10
2.832031
20
0.011719
30
0.500000
11
2.816406
21
0.006836
31
0.500000
0
LINE
8
0
62
0
10
2.816406
20
0.006836
30
0.500000
11
2.799805
21
0.002930
31
0.500000
0
LINE
8
0
62
0
10
2.799805
20
0.002930
30
0.500000
11
2.783203
21
0.000977
31
0.500000
0
LINE
8
0
62
0
10
2.783203
20
0.000977
30
0.500000
11
2.765625
21
0.000000
31
0.500000
0
LINE
8
0
62
0
10
2.765625
20
0.000000
30
0.500000
11
2.625977
21
0.000000
31
0.500000
0
LINE
8
0
62
0
10
2.625977
20
0.000000
30
0.500000
11
2.612305
21
0.018555
31
0.500000
0
LINE
8
0
62
0
10
2.612305
20
0.018555
30
0.500000
11
2.598633
21
0.037109
31
0.500000
0
LINE
8
0
62
0
10
2.598633
20
0.037109
30
0.500000
11
2.586914
21
0.055664
31
0.500000
0
LINE
8
0
62
0
10
2.586914
20
0.055664
30
0.500000
11
2.576172
21
0.074219
31
0.500000
0
LINE
8
0
62
0
10
2.576172
20
0.074219
30
0.500000
11
2.567383
21
0.093750
31
0.500000
0
LINE
8
0
62
0
10
2.567383
20
0.093750
30
0.500000
11
2.558594
21
0.112305
31
0.500000
0
LINE
8
0
62
0
10
2.558594
20
0.112305
30
0.500000
11
2.551758
21
0.130859
31
0.500000
0
LINE
8
0
62
0
10
2.551758
20
0.130859
30
0.500000
11
2.545898
21
0.149414
31
0.500000
0
LINE
8
0
62
0
10
2.545898
20
0.149414
30
0.500000
11
2.541016
21
0.168945
31
0.500000
0
LINE
8
0
62
0
10
2.541016
20
0.168945
30
0.500000
11
2.537109
21
0.188477
31
0.500000
0
LINE
8
0
62
0
10
2.537109
20
0.188477
30
0.500000
11
2.533203
21
0.210938
31
0.500000
0
LINE
8
0
62
0
10
2.533203
20
0.210938
30
0.500000
11
2.530273
21
0.233398
31
0.500000
0
LINE
8
0
62
0
10
2.530273
20
0.233398
30
0.500000
11
2.527344
21
0.256836
31
0.500000
0
LINE
8
0
62
0
10
2.527344
20
0.256836
30
0.500000
11
2.526367
21
0.282227
31
0.500000
0
LINE
8
0
62
0
10
2.526367
20
0.282227
30
0.500000
11
2.525391
21
0.308594
31
0.500000
0
LINE
8
0
62
0
10
2.525391
20
0.308594
30
0.500000
11
2.524414
21
0.335938
31
0.500000
0
LINE
8
0
62
0
10
3.134766
20
0.000000
30
0.500000
11
3.134766
21
0.139648
31
0.500000
0
LINE
8
0
62
0
10
3.134766
20
0.139648
30
0.500000
11
3.378906
21
0.139648
31
0.500000
0
LINE
8
0
62
0
10
3.378906
20
0.139648
30
0.500000
11
3.236328
21
0.349609
31
0.500000
0
LINE
8
0
62
0
10
3.236328
20
0.349609
30
0.500000
11
3.233398
21
0.353516
31
0.500000
0
LINE
8
0
62
0
10
3.233398
20
0.353516
30
0.500000
11
3.231445
21
0.357422
31
0.500000
0
LINE
8
0
62
0
10
3.231445
20
0.357422
30
0.500000
11
3.227539
21
0.362305
31
0.500000
0
LINE
8
0
62
0
10
3.227539
20
0.362305
30
0.500000
11
3.224609
21
0.367188
31
0.500000
0
LINE
8
0
62
0
10
3.224609
20
0.367188
30
0.500000
11
3.220703
21
0.372070
31
0.500000
0
LINE
8
0
62
0
10
3.220703
20
0.372070
30
0.500000
11
3.216797
21
0.377930
31
0.500000
0
LINE
8
0
62
0
10
3.216797
20
0.377930
30
0.500000
11
3.211914
21
0.383789
31
0.500000
0
LINE
8
0
62
0
10
3.211914
20
0.383789
30
0.500000
11
3.208008
21
0.390625
31
0.500000
0
LINE
8
0
62
0
10
3.208008
20
0.390625
30
0.500000
11
3.203125
21
0.397461
31
0.500000
0
LINE
8
0
62
0
10
3.203125
20
0.397461
30
0.500000
11
3.198242
21
0.403320
31
0.500000
0
LINE
8
0
62
0
10
3.198242
20
0.403320
30
0.500000
11
3.194336
21
0.409180
31
0.500000
0
LINE
8
0
62
0
10
3.194336
20
0.409180
30
0.500000
11
3.190430
21
0.415039
31
0.500000
0
LINE
8
0
62
0
10
3.190430
20
0.415039
30
0.500000
11
3.186523
21
0.419922
31
0.500000
0
LINE
8
0
62
0
10
3.186523
20
0.419922
30
0.500000
11
3.183594
21
0.424805
31
0.500000
0
LINE
8
0
62
0
10
3.183594
20
0.424805
30
0.500000
11
3.180664
21
0.429688
31
0.500000
0
LINE
8
0
62
0
10
3.180664
20
0.429688
30
0.500000
11
3.177734
21
0.433594
31
0.500000
0
LINE
8
0
62
0
10
3.177734
20
0.433594
30
0.500000
11
3.174805
21
0.437500
31
0.500000
0
LINE
8
0
62
0
10
3.174805
20
0.437500
30
0.500000
11
3.172852
21
0.441406
31
0.500000
0
LINE
8
0
62
0
10
3.172852
20
0.441406
30
0.500000
11
3.170898
21
0.445313
31
0.500000
0
LINE
8
0
62
0
10
3.170898
20
0.445313
30
0.500000
11
3.168945
21
0.448242
31
0.500000
0
LINE
8
0
62
0
10
3.168945
20
0.448242
30
0.500000
11
3.166992
21
0.451172
31
0.500000
0
LINE
8
0
62
0
10
3.166992
20
0.451172
30
0.500000
11
3.165039
21
0.454102
31
0.500000
0
LINE
8
0
62
0
10
3.165039
20
0.454102
30
0.500000
11
3.164063
21
0.456055
31
0.500000
0
LINE
8
0
62
0
10
3.164063
20
0.456055
30
0.500000
11
3.163086
21
0.458984
31
0.500000
0
LINE
8
0
62
0
10
3.163086
20
0.458984
30
0.500000
11
3.162109
21
0.460938
31
0.500000
0
LINE
8
0
62
0
10
3.162109
20
0.460938
30
0.500000
11
3.161133
21
0.462891
31
0.500000
0
LINE
8
0
62
0
10
3.161133
20
0.462891
30
0.500000
11
3.160156
21
0.464844
31
0.500000
0
LINE
8
0
62
0
10
3.160156
20
0.464844
30
0.500000
11
3.158203
21
0.467773
31
0.500000
0
LINE
8
0
62
0
10
3.158203
20
0.467773
30
0.500000
11
3.157227
21
0.470703
31
0.500000
0
LINE
8
0
62
0
10
3.157227
20
0.470703
30
0.500000
11
3.155273
21
0.473633
31
0.500000
0
LINE
8
0
62
0
10
3.155273
20
0.473633
30
0.500000
11
3.154297
21
0.476563
31
0.500000
0
LINE
8
0
62
0
10
3.154297
20
0.476563
30
0.500000
11
3.152344
21
0.479492
31
0.500000
0
LINE
8
0
62
0
10
3.152344
20
0.479492
30
0.500000
11
3.150391
21
0.482422
31
0.500000
0
LINE
8
0
62
0
10
3.150391
20
0.482422
30
0.500000
11
3.149414
21
0.485352
31
0.500000
0
LINE
8
0
62
0
10
3.149414
20
0.485352
30
0.500000
11
3.148438
21
0.488281
31
0.500000
0
LINE
8
0
62
0
10
3.148438
20
0.488281
30
0.500000
11
3.146484
21
0.491211
31
0.500000
0
LINE
8
0
62
0
10
3.146484
20
0.491211
30
0.500000
11
3.145508
21
0.494141
31
0.500000
0
LINE
8
0
62
0
10
3.145508
20
0.494141
30
0.500000
11
3.144531
21
0.496094
31
0.500000
0
LINE
8
0
62
0
10
3.144531
20
0.496094
30
0.500000
11
3.143555
21
0.499023
31
0.500000
0
LINE
8
0
62
0
10
3.143555
20
0.499023
30
0.500000
11
3.143555
21
0.500977
31
0.500000
0
LINE
8
0
62
0
10
3.143555
20
0.500977
30
0.500000
11
3.141602
21
0.507813
31
0.500000
0
LINE
8
0
62
0
10
3.141602
20
0.507813
30
0.500000
11
3.140625
21
0.513672
31
0.500000
0
LINE
8
0
62
0
10
3.140625
20
0.513672
30
0.500000
11
3.139648
21
0.518555
31
0.500000
0
LINE
8
0
62
0
10
3.139648
20
0.518555
30
0.500000
11
3.138672
21
0.524414
31
0.500000
0
LINE
8
0
62
0
10
3.138672
20
0.524414
30
0.500000
11
3.138672
21
0.529297
31
0.500000
0
LINE
8
0
62
0
10
3.138672
20
0.529297
30
0.500000
11
3.137695
21
0.534180
31
0.500000
0
LINE
8
0
62
0
10
3.137695
20
0.534180
30
0.500000
11
3.137695
21
0.538086
31
0.500000
0
LINE
8
0
62
0
10
3.137695
20
0.538086
30
0.500000
11
3.137695
21
0.542969
31
0.500000
0
LINE
8
0
62
0
10
3.137695
20
0.542969
30
0.500000
11
3.139648
21
0.566406
31
0.500000
0
LINE
8
0
62
0
10
3.139648
20
0.566406
30
0.500000
11
3.143555
21
0.587891
31
0.500000
0
LINE
8
0
62
0
10
3.143555
20
0.587891
30
0.500000
11
3.151367
21
0.607422
31
0.500000
0
LINE
8
0
62
0
10
3.151367
20
0.607422
30
0.500000
11
3.161133
21
0.625977
31
0.500000
0
LINE
8
0
62
0
10
3.161133
20
0.625977
30
0.500000
11
3.174805
21
0.642578
31
0.500000
0
LINE
8
0
62
0
10
3.174805
20
0.642578
30
0.500000
11
3.191406
21
0.657227
31
0.500000
0
LINE
8
0
62
0
10
3.191406
20
0.657227
30
0.500000
11
3.209961
21
0.669922
31
0.500000
0
LINE
8
0
62
0
10
3.209961
20
0.669922
30
0.500000
11
3.232422
21
0.681641
31
0.500000
0
LINE
8
0
62
0
10
3.232422
20
0.681641
30
0.500000
11
3.527344
21
0.681641
31
0.500000
0
LINE
8
0
62
0
10
3.527344
20
0.681641
30
0.500000
11
3.527344
21
0.541016
31
0.500000
0
LINE
8
0
62
0
10
3.527344
20
0.541016
30
0.500000
11
3.319336
21
0.541016
31
0.500000
0
LINE
8
0
62
0
10
3.319336
20
0.541016
30
0.500000
11
3.445313
21
0.353516
31
0.500000
0
LINE
8
0
62
0
10
3.445313
20
0.353516
30
0.500000
11
3.465820
21
0.324219
31
0.500000
0
LINE
8
0
62
0
10
3.465820
20
0.324219
30
0.500000
11
3.483398
21
0.296875
31
0.500000
0
LINE
8
0
62
0
10
3.483398
20
0.296875
30
0.500000
11
3.499023
21
0.273438
31
0.500000
0
LINE
8
0
62
0
10
3.499023
20
0.273438
30
0.500000
11
3.511719
21
0.250977
31
0.500000
0
LINE
8
0
62
0
10
3.511719
20
0.250977
30
0.500000
11
3.522461
21
0.231445
31
0.500000
0
LINE
8
0
62
0
10
3.522461
20
0.231445
30
0.500000
11
3.531250
21
0.213867
31
0.500000
0
LINE
8
0
62
0
10
3.531250
20
0.213867
30
0.500000
11
3.537109
21
0.199219
31
0.500000
0
LINE
8
0
62
0
10
3.537109
20
0.199219
30
0.500000
11
3.540039
21
0.186523
31
0.500000
0
LINE
8
0
62
0
10
3.540039
20
0.186523
30
0.500000
11
3.541992
21
0.181641
31
0.500000
0
LINE
8
0
62
0
10
3.541992
20
0.181641
30
0.500000
11
3.542969
21
0.175781
31
0.500000
0
LINE
8
0
62
0
10
3.542969
20
0.175781
30
0.500000
11
3.543945
21
0.170898
31
0.500000
0
LINE
8
0
62
0
10
3.543945
20
0.170898
30
0.500000
11
3.543945
21
0.165039
31
0.500000
0
LINE
8
0
62
0
10
3.543945
20
0.165039
30
0.500000
11
3.544922
21
0.159180
31
0.500000
0
LINE
8
0
62
0
10
3.544922
20
0.159180
30
0.500000
11
3.544922
21
0.154297
31
0.500000
0
LINE
8
0
62
0
10
3.544922
20
0.154297
30
0.500000
11
3.545898
21
0.148438
31
0.500000
0
LINE
8
0
62
0
10
3.545898
20
0.148438
30
0.500000
11
3.545898
21
0.142578
31
0.500000
0
LINE
8
0
62
0
10
3.545898
20
0.142578
30
0.500000
11
3.544922
21
0.120117
31
0.500000
0
LINE
8
0
62
0
10
3.544922
20
0.120117
30
0.500000
11
3.541016
21
0.098633
31
0.500000
0
LINE
8
0
62
0
10
3.541016
20
0.098633
30
0.500000
11
3.536133
21
0.078125
31
0.500000
0
LINE
8
0
62
0
10
3.536133
20
0.078125
30
0.500000
11
3.528320
21
0.059570
31
0.500000
0
LINE
8
0
62
0
10
3.528320
20
0.059570
30
0.500000
11
3.517578
21
0.042969
31
0.500000
0
LINE
8
0
62
0
10
3.517578
20
0.042969
30
0.500000
11
3.505859
21
0.027344
31
0.500000
0
LINE
8
0
62
0
10
3.505859
20
0.027344
30
0.500000
11
3.491211
21
0.012695
31
0.500000
0
LINE
8
0
62
0
10
3.491211
20
0.012695
30
0.500000
11
3.474609
21
0.000000
31
0.500000
0
LINE
8
0
62
0
10
3.474609
20
0.000000
30
0.500000
11
3.134766
21
0.000000
31
0.500000
0
ENDSEC
0
EOF
