0
SECTION
2
HEADER
9
$EXTMIN
10
0.033203125
20
0
30
0.5
9
$EXTMAX
10
5.6865234375
20
0.93359375
30
0.5
0
ENDSEC
0
SECTION
2
TABLES
0
TABLE
2
VPORT
0
VPORT
2
*ACTIVE
41
  1.000000
0
ENDTAB
0
TABLE
2
LAYER
0
LAYER
2
0
62
0
0
ENDTAB
0
ENDSEC
0
SECTION
2
BLOCKS
0
ENDSEC
0
SECTION
2
ENTITIES
0
LINE
8
0
62
0
10
0.033203
20
0.745117
30
0.500000
11
0.035156
21
0.778320
31
0.500000
0
LINE
8
0
62
0
10
0.035156
20
0.778320
30
0.500000
11
0.041016
21
0.808594
31
0.500000
0
LINE
8
0
62
0
10
0.041016
20
0.808594
30
0.500000
11
0.049805
21
0.836914
31
0.500000
0
LINE
8
0
62
0
10
0.049805
20
0.836914
30
0.500000
11
0.062500
21
0.861328
31
0.500000
0
LINE
8
0
62
0
10
0.062500
20
0.861328
30
0.500000
11
0.079102
21
0.883789
31
0.500000
0
LINE
8
0
62
0
10
0.079102
20
0.883789
30
0.500000
11
0.098633
21
0.903320
31
0.500000
0
LINE
8
0
62
0
10
0.098633
20
0.903320
30
0.500000
11
0.122070
21
0.918945
31
0.500000
0
LINE
8
0
62
0
10
0.122070
20
0.918945
30
0.500000
11
0.149414
21
0.933594
31
0.500000
0
LINE
8
0
62
0
10
0.149414
20
0.933594
30
0.500000
11
0.468750
21
0.933594
31
0.500000
0
LINE
8
0
62
0
10
0.468750
20
0.933594
30
0.500000
11
0.468750
21
0.773438
31
0.500000
0
LINE
8
0
62
0
10
0.468750
20
0.773438
30
0.500000
11
0.212891
21
0.773438
31
0.500000
0
LINE
8
0
62
0
10
0.212891
20
0.773438
30
0.500000
11
0.208984
21
0.765625
31
0.500000
0
LINE
8
0
62
0
10
0.208984
20
0.765625
30
0.500000
11
0.422852
21
0.375977
31
0.500000
0
LINE
8
0
62
0
10
0.422852
20
0.375977
30
0.500000
11
0.437500
21
0.347656
31
0.500000
0
LINE
8
0
62
0
10
0.437500
20
0.347656
30
0.500000
11
0.451172
21
0.320313
31
0.500000
0
LINE
8
0
62
0
10
0.451172
20
0.320313
30
0.500000
11
0.461914
21
0.295898
31
0.500000
0
LINE
8
0
62
0
10
0.461914
20
0.295898
30
0.500000
11
0.471680
21
0.272461
31
0.500000
0
LINE
8
0
62
0
10
0.471680
20
0.272461
30
0.500000
11
0.478516
21
0.250977
31
0.500000
0
LINE
8
0
62
0
10
0.478516
20
0.250977
30
0.500000
11
0.483398
21
0.231445
31
0.500000
0
LINE
8
0
62
0
10
0.483398
20
0.231445
30
0.500000
11
0.487305
21
0.213867
31
0.500000
0
LINE
8
0
62
0
10
0.487305
20
0.213867
30
0.500000
11
0.488281
21
0.197266
31
0.500000
0
LINE
8
0
62
0
10
0.488281
20
0.197266
30
0.500000
11
0.486328
21
0.165039
31
0.500000
0
LINE
8
0
62
0
10
0.486328
20
0.165039
30
0.500000
11
0.482422
21
0.134766
31
0.500000
0
LINE
8
0
62
0
10
0.482422
20
0.134766
30
0.500000
11
0.475586
21
0.106445
31
0.500000
0
LINE
8
0
62
0
10
0.475586
20
0.106445
30
0.500000
11
0.465820
21
0.081055
31
0.500000
0
LINE
8
0
62
0
10
0.465820
20
0.081055
30
0.500000
11
0.453125
21
0.056641
31
0.500000
0
LINE
8
0
62
0
10
0.453125
20
0.056641
30
0.500000
11
0.437500
21
0.036133
31
0.500000
0
LINE
8
0
62
0
10
0.437500
20
0.036133
30
0.500000
11
0.419922
21
0.016602
31
0.500000
0
LINE
8
0
62
0
10
0.419922
20
0.016602
30
0.500000
11
0.398438
21
0.000000
31
0.500000
0
LINE
8
0
62
0
10
0.398438
20
0.000000
30
0.500000
11
0.044922
21
0.000000
31
0.500000
0
LINE
8
0
62
0
10
0.044922
20
0.000000
30
0.500000
11
0.044922
21
0.154297
31
0.500000
0
LINE
8
0
62
0
10
0.044922
20
0.154297
30
0.500000
11
0.321289
21
0.154297
31
0.500000
0
LINE
8
0
62
0
10
0.321289
20
0.154297
30
0.500000
11
0.325195
21
0.163086
31
0.500000
0
LINE
8
0
62
0
10
0.325195
20
0.163086
30
0.500000
11
0.084961
21
0.592773
31
0.500000
0
LINE
8
0
62
0
10
0.084961
20
0.592773
30
0.500000
11
0.073242
21
0.616211
31
0.500000
0
LINE
8
0
62
0
10
0.073242
20
0.616211
30
0.500000
11
0.062500
21
0.637695
31
0.500000
0
LINE
8
0
62
0
10
0.062500
20
0.637695
30
0.500000
11
0.053711
21
0.658203
31
0.500000
0
LINE
8
0
62
0
10
0.053711
20
0.658203
30
0.500000
11
0.045898
21
0.677734
31
0.500000
0
LINE
8
0
62
0
10
0.045898
20
0.677734
30
0.500000
11
0.041016
21
0.696289
31
0.500000
0
LINE
8
0
62
0
10
0.041016
20
0.696289
30
0.500000
11
0.036133
21
0.713867
31
0.500000
0
LINE
8
0
62
0
10
0.036133
20
0.713867
30
0.500000
11
0.034180
21
0.729492
31
0.500000
0
LINE
8
0
62
0
10
0.034180
20
0.729492
30
0.500000
11
0.033203
21
0.745117
31
0.500000
0
LINE
8
0
62
0
10
0.575195
20
0.933594
30
0.500000
11
0.750977
21
0.933594
31
0.500000
0
LINE
8
0
62
0
10
0.750977
20
0.933594
30
0.500000
11
0.750977
21
0.752930
31
0.500000
0
LINE
8
0
62
0
10
0.750977
20
0.752930
30
0.500000
11
0.575195
21
0.752930
31
0.500000
0
LINE
8
0
62
0
10
0.575195
20
0.752930
30
0.500000
11
0.575195
21
0.933594
31
0.500000
0
LINE
8
0
62
0
10
0.575195
20
0.000000
30
0.500000
11
0.575195
21
0.681641
31
0.500000
0
LINE
8
0
62
0
10
0.575195
20
0.681641
30
0.500000
11
0.750977
21
0.681641
31
0.500000
0
LINE
8
0
62
0
10
0.750977
20
0.681641
30
0.500000
11
0.750977
21
0.000000
31
0.500000
0
LINE
8
0
62
0
10
0.750977
20
0.000000
30
0.500000
11
0.575195
21
0.000000
31
0.500000
0
LINE
8
0
62
0
10
0.866211
20
0.000000
30
0.500000
11
0.866211
21
0.681641
31
0.500000
0
LINE
8
0
62
0
10
0.866211
20
0.681641
30
0.500000
11
1.004883
21
0.681641
31
0.500000
0
LINE
8
0
62
0
10
1.004883
20
0.681641
30
0.500000
11
1.028320
21
0.632813
31
0.500000
0
LINE
8
0
62
0
10
1.028320
20
0.632813
30
0.500000
11
1.036133
21
0.639648
31
0.500000
0
LINE
8
0
62
0
10
1.036133
20
0.639648
30
0.500000
11
1.042969
21
0.645508
31
0.500000
0
LINE
8
0
62
0
10
1.042969
20
0.645508
30
0.500000
11
1.049805
21
0.651367
31
0.500000
0
LINE
8
0
62
0
10
1.049805
20
0.651367
30
0.500000
11
1.056641
21
0.656250
31
0.500000
0
LINE
8
0
62
0
10
1.056641
20
0.656250
30
0.500000
11
1.063477
21
0.660156
31
0.500000
0
LINE
8
0
62
0
10
1.063477
20
0.660156
30
0.500000
11
1.070313
21
0.664063
31
0.500000
0
LINE
8
0
62
0
10
1.070313
20
0.664063
30
0.500000
11
1.077148
21
0.667969
31
0.500000
0
LINE
8
0
62
0
10
1.077148
20
0.667969
30
0.500000
11
1.083984
21
0.670898
31
0.500000
0
LINE
8
0
62
0
10
1.083984
20
0.670898
30
0.500000
11
1.090820
21
0.672852
31
0.500000
0
LINE
8
0
62
0
10
1.090820
20
0.672852
30
0.500000
11
1.098633
21
0.674805
31
0.500000
0
LINE
8
0
62
0
10
1.098633
20
0.674805
30
0.500000
11
1.107422
21
0.676758
31
0.500000
0
LINE
8
0
62
0
10
1.107422
20
0.676758
30
0.500000
11
1.116211
21
0.678711
31
0.500000
0
LINE
8
0
62
0
10
1.116211
20
0.678711
30
0.500000
11
1.126953
21
0.679688
31
0.500000
0
LINE
8
0
62
0
10
1.126953
20
0.679688
30
0.500000
11
1.137695
21
0.680664
31
0.500000
0
LINE
8
0
62
0
10
1.137695
20
0.680664
30
0.500000
11
1.149414
21
0.680664
31
0.500000
0
LINE
8
0
62
0
10
1.149414
20
0.680664
30
0.500000
11
1.162109
21
0.681641
31
0.500000
0
LINE
8
0
62
0
10
1.162109
20
0.681641
30
0.500000
11
1.256836
21
0.681641
31
0.500000
0
LINE
8
0
62
0
10
1.256836
20
0.681641
30
0.500000
11
1.290039
21
0.634766
31
0.500000
0
LINE
8
0
62
0
10
1.290039
20
0.634766
30
0.500000
11
1.296875
21
0.640625
31
0.500000
0
LINE
8
0
62
0
10
1.296875
20
0.640625
30
0.500000
11
1.303711
21
0.646484
31
0.500000
0
LINE
8
0
62
0
10
1.303711
20
0.646484
30
0.500000
11
1.310547
21
0.651367
31
0.500000
0
LINE
8
0
62
0
10
1.310547
20
0.651367
30
0.500000
11
1.317383
21
0.656250
31
0.500000
0
LINE
8
0
62
0
10
1.317383
20
0.656250
30
0.500000
11
1.324219
21
0.660156
31
0.500000
0
LINE
8
0
62
0
10
1.324219
20
0.660156
30
0.500000
11
1.331055
21
0.664063
31
0.500000
0
LINE
8
0
62
0
10
1.331055
20
0.664063
30
0.500000
11
1.336914
21
0.667969
31
0.500000
0
LINE
8
0
62
0
10
1.336914
20
0.667969
30
0.500000
11
1.343750
21
0.670898
31
0.500000
0
LINE
8
0
62
0
10
1.343750
20
0.670898
30
0.500000
11
1.350586
21
0.672852
31
0.500000
0
LINE
8
0
62
0
10
1.350586
20
0.672852
30
0.500000
11
1.358398
21
0.674805
31
0.500000
0
LINE
8
0
62
0
10
1.358398
20
0.674805
30
0.500000
11
1.367188
21
0.676758
31
0.500000
0
LINE
8
0
62
0
10
1.367188
20
0.676758
30
0.500000
11
1.375977
21
0.678711
31
0.500000
0
LINE
8
0
62
0
10
1.375977
20
0.678711
30
0.500000
11
1.386719
21
0.679688
31
0.500000
0
LINE
8
0
62
0
10
1.386719
20
0.679688
30
0.500000
11
1.397461
21
0.680664
31
0.500000
0
LINE
8
0
62
0
10
1.397461
20
0.680664
30
0.500000
11
1.409180
21
0.680664
31
0.500000
0
LINE
8
0
62
0
10
1.409180
20
0.680664
30
0.500000
11
1.421875
21
0.681641
31
0.500000
0
LINE
8
0
62
0
10
1.421875
20
0.681641
30
0.500000
11
1.569336
21
0.681641
31
0.500000
0
LINE
8
0
62
0
10
1.569336
20
0.681641
30
0.500000
11
1.583984
21
0.662109
31
0.500000
0
LINE
8
0
62
0
10
1.583984
20
0.662109
30
0.500000
11
1.596680
21
0.643555
31
0.500000
0
LINE
8
0
62
0
10
1.596680
20
0.643555
30
0.500000
11
1.608398
21
0.625000
31
0.500000
0
LINE
8
0
62
0
10
1.608398
20
0.625000
30
0.500000
11
1.619141
21
0.606445
31
0.500000
0
LINE
8
0
62
0
10
1.619141
20
0.606445
30
0.500000
11
1.628906
21
0.587891
31
0.500000
0
LINE
8
0
62
0
10
1.628906
20
0.587891
30
0.500000
11
1.636719
21
0.569336
31
0.500000
0
LINE
8
0
62
0
10
1.636719
20
0.569336
30
0.500000
11
1.643555
21
0.550781
31
0.500000
0
LINE
8
0
62
0
10
1.643555
20
0.550781
30
0.500000
11
1.649414
21
0.532227
31
0.500000
0
LINE
8
0
62
0
10
1.649414
20
0.532227
30
0.500000
11
1.654297
21
0.512695
31
0.500000
0
LINE
8
0
62
0
10
1.654297
20
0.512695
30
0.500000
11
1.659180
21
0.492188
31
0.500000
0
LINE
8
0
62
0
10
1.659180
20
0.492188
30
0.500000
11
1.663086
21
0.470703
31
0.500000
0
LINE
8
0
62
0
10
1.663086
20
0.470703
30
0.500000
11
1.666016
21
0.448242
31
0.500000
0
LINE
8
0
62
0
10
1.666016
20
0.448242
30
0.500000
11
1.667969
21
0.423828
31
0.500000
0
LINE
8
0
62
0
10
1.667969
20
0.423828
30
0.500000
11
1.669922
21
0.398438
31
0.500000
0
LINE
8
0
62
0
10
1.669922
20
0.398438
30
0.500000
11
1.670898
21
0.373047
31
0.500000
0
LINE
8
0
62
0
10
1.670898
20
0.373047
30
0.500000
11
1.670898
21
0.345703
31
0.500000
0
LINE
8
0
62
0
10
1.670898
20
0.345703
30
0.500000
11
1.670898
21
0.000000
31
0.500000
0
LINE
8
0
62
0
10
1.670898
20
0.000000
30
0.500000
11
1.494141
21
0.000000
31
0.500000
0
LINE
8
0
62
0
10
1.494141
20
0.000000
30
0.500000
11
1.494141
21
0.358398
31
0.500000
0
LINE
8
0
62
0
10
1.494141
20
0.358398
30
0.500000
11
1.493164
21
0.388672
31
0.500000
0
LINE
8
0
62
0
10
1.493164
20
0.388672
30
0.500000
11
1.491211
21
0.416016
31
0.500000
0
LINE
8
0
62
0
10
1.491211
20
0.416016
30
0.500000
11
1.488281
21
0.441406
31
0.500000
0
LINE
8
0
62
0
10
1.488281
20
0.441406
30
0.500000
11
1.484375
21
0.465820
31
0.500000
0
LINE
8
0
62
0
10
1.484375
20
0.465820
30
0.500000
11
1.479492
21
0.487305
31
0.500000
0
LINE
8
0
62
0
10
1.479492
20
0.487305
30
0.500000
11
1.472656
21
0.506836
31
0.500000
0
LINE
8
0
62
0
10
1.472656
20
0.506836
30
0.500000
11
1.464844
21
0.525391
31
0.500000
0
LINE
8
0
62
0
10
1.464844
20
0.525391
30
0.500000
11
1.456055
21
0.541016
31
0.500000
0
LINE
8
0
62
0
10
1.456055
20
0.541016
30
0.500000
11
1.328125
21
0.541016
31
0.500000
0
LINE
8
0
62
0
10
1.328125
20
0.541016
30
0.500000
11
1.334961
21
0.526367
31
0.500000
0
LINE
8
0
62
0
10
1.334961
20
0.526367
30
0.500000
11
1.340820
21
0.509766
31
0.500000
0
LINE
8
0
62
0
10
1.340820
20
0.509766
30
0.500000
11
1.346680
21
0.492188
31
0.500000
0
LINE
8
0
62
0
10
1.346680
20
0.492188
30
0.500000
11
1.350586
21
0.473633
31
0.500000
0
LINE
8
0
62
0
10
1.350586
20
0.473633
30
0.500000
11
1.353516
21
0.453125
31
0.500000
0
LINE
8
0
62
0
10
1.353516
20
0.453125
30
0.500000
11
1.355469
21
0.431641
31
0.500000
0
LINE
8
0
62
0
10
1.355469
20
0.431641
30
0.500000
11
1.357422
21
0.409180
31
0.500000
0
LINE
8
0
62
0
10
1.357422
20
0.409180
30
0.500000
11
1.357422
21
0.384766
31
0.500000
0
LINE
8
0
62
0
10
1.357422
20
0.384766
30
0.500000
11
1.357422
21
0.000000
31
0.500000
0
LINE
8
0
62
0
10
1.357422
20
0.000000
30
0.500000
11
1.180664
21
0.000000
31
0.500000
0
LINE
8
0
62
0
10
1.180664
20
0.000000
30
0.500000
11
1.180664
21
0.358398
31
0.500000
0
LINE
8
0
62
0
10
1.180664
20
0.358398
30
0.500000
11
1.179688
21
0.388672
31
0.500000
0
LINE
8
0
62
0
10
1.179688
20
0.388672
30
0.500000
11
1.178711
21
0.417969
31
0.500000
0
LINE
8
0
62
0
10
1.178711
20
0.417969
30
0.500000
11
1.175781
21
0.443359
31
0.500000
0
LINE
8
0
62
0
10
1.175781
20
0.443359
30
0.500000
11
1.171875
21
0.467773
31
0.500000
0
LINE
8
0
62
0
10
1.171875
20
0.467773
30
0.500000
11
1.166992
21
0.489258
31
0.500000
0
LINE
8
0
62
0
10
1.166992
20
0.489258
30
0.500000
11
1.161133
21
0.508789
31
0.500000
0
LINE
8
0
62
0
10
1.161133
20
0.508789
30
0.500000
11
1.154297
21
0.526367
31
0.500000
0
LINE
8
0
62
0
10
1.154297
20
0.526367
30
0.500000
11
1.145508
21
0.541016
31
0.500000
0
LINE
8
0
62
0
10
1.145508
20
0.541016
30
0.500000
11
1.042969
21
0.541016
31
0.500000
0
LINE
8
0
62
0
10
1.042969
20
0.541016
30
0.500000
11
1.042969
21
0.000000
31
0.500000
0
LINE
8
0
62
0
10
1.042969
20
0.000000
30
0.500000
11
0.866211
21
0.000000
31
0.500000
0
LINE
8
0
62
0
10
1.774414
20
0.335938
30
0.500000
11
1.774414
21
0.681641
31
0.500000
0
LINE
8
0
62
0
10
1.774414
20
0.681641
30
0.500000
11
1.952148
21
0.681641
31
0.500000
0
LINE
8
0
62
0
10
1.952148
20
0.681641
30
0.500000
11
1.952148
21
0.322266
31
0.500000
0
LINE
8
0
62
0
10
1.952148
20
0.322266
30
0.500000
11
1.953125
21
0.292969
31
0.500000
0
LINE
8
0
62
0
10
1.953125
20
0.292969
30
0.500000
11
1.955078
21
0.265625
31
0.500000
0
LINE
8
0
62
0
10
1.955078
20
0.265625
30
0.500000
11
1.958984
21
0.240234
31
0.500000
0
LINE
8
0
62
0
10
1.958984
20
0.240234
30
0.500000
11
1.963867
21
0.215820
31
0.500000
0
LINE
8
0
62
0
10
1.963867
20
0.215820
30
0.500000
11
1.970703
21
0.194336
31
0.500000
0
LINE
8
0
62
0
10
1.970703
20
0.194336
30
0.500000
11
1.978516
21
0.174805
31
0.500000
0
LINE
8
0
62
0
10
1.978516
20
0.174805
30
0.500000
11
1.988281
21
0.156250
31
0.500000
0
LINE
8
0
62
0
10
1.988281
20
0.156250
30
0.500000
11
2.000000
21
0.139648
31
0.500000
0
LINE
8
0
62
0
10
2.000000
20
0.139648
30
0.500000
11
2.124023
21
0.139648
31
0.500000
0
LINE
8
0
62
0
10
2.124023
20
0.139648
30
0.500000
11
2.124023
21
0.681641
31
0.500000
0
LINE
8
0
62
0
10
2.124023
20
0.681641
30
0.500000
11
2.300781
21
0.681641
31
0.500000
0
LINE
8
0
62
0
10
2.300781
20
0.681641
30
0.500000
11
2.300781
21
0.000000
31
0.500000
0
LINE
8
0
62
0
10
2.300781
20
0.000000
30
0.500000
11
2.161133
21
0.000000
31
0.500000
0
LINE
8
0
62
0
10
2.161133
20
0.000000
30
0.500000
11
2.137695
21
0.047852
31
0.500000
0
LINE
8
0
62
0
10
2.137695
20
0.047852
30
0.500000
11
2.124023
21
0.037109
31
0.500000
0
LINE
8
0
62
0
10
2.124023
20
0.037109
30
0.500000
11
2.110352
21
0.027344
31
0.500000
0
LINE
8
0
62
0
10
2.110352
20
0.027344
30
0.500000
11
2.096680
21
0.018555
31
0.500000
0
LINE
8
0
62
0
10
2.096680
20
0.018555
30
0.500000
11
2.082031
21
0.011719
31
0.500000
0
LINE
8
0
62
0
10
2.082031
20
0.011719
30
0.500000
11
2.066406
21
0.006836
31
0.500000
0
LINE
8
0
62
0
10
2.066406
20
0.006836
30
0.500000
11
2.049805
21
0.002930
31
0.500000
0
LINE
8
0
62
0
10
2.049805
20
0.002930
30
0.500000
11
2.033203
21
0.000977
31
0.500000
0
LINE
8
0
62
0
10
2.033203
20
0.000977
30
0.500000
11
2.015625
21
0.000000
31
0.500000
0
LINE
8
0
62
0
10
2.015625
20
0.000000
30
0.500000
11
1.875977
21
0.000000
31
0.500000
0
LINE
8
0
62
0
10
1.875977
20
0.000000
30
0.500000
11
1.862305
21
0.018555
31
0.500000
0
LINE
8
0
62
0
10
1.862305
20
0.018555
30
0.500000
11
1.848633
21
0.037109
31
0.500000
0
LINE
8
0
62
0
10
1.848633
20
0.037109
30
0.500000
11
1.836914
21
0.055664
31
0.500000
0
LINE
8
0
62
0
10
1.836914
20
0.055664
30
0.500000
11
1.826172
21
0.074219
31
0.500000
0
LINE
8
0
62
0
10
1.826172
20
0.074219
30
0.500000
11
1.817383
21
0.093750
31
0.500000
0
LINE
8
0
62
0
10
1.817383
20
0.093750
30
0.500000
11
1.808594
21
0.112305
31
0.500000
0
LINE
8
0
62
0
10
1.808594
20
0.112305
30
0.500000
11
1.801758
21
0.130859
31
0.500000
0
LINE
8
0
62
0
10
1.801758
20
0.130859
30
0.500000
11
1.795898
21
0.149414
31
0.500000
0
LINE
8
0
62
0
10
1.795898
20
0.149414
30
0.500000
11
1.791016
21
0.168945
31
0.500000
0
LINE
8
0
62
0
10
1.791016
20
0.168945
30
0.500000
11
1.787109
21
0.188477
31
0.500000
0
LINE
8
0
62
0
10
1.787109
20
0.188477
30
0.500000
11
1.783203
21
0.210938
31
0.500000
0
LINE
8
0
62
0
10
1.783203
20
0.210938
30
0.500000
11
1.780273
21
0.233398
31
0.500000
0
LINE
8
0
62
0
10
1.780273
20
0.233398
30
0.500000
11
1.777344
21
0.256836
31
0.500000
0
LINE
8
0
62
0
10
1.777344
20
0.256836
30
0.500000
11
1.776367
21
0.282227
31
0.500000
0
LINE
8
0
62
0
10
1.776367
20
0.282227
30
0.500000
11
1.775391
21
0.308594
31
0.500000
0
LINE
8
0
62
0
10
1.775391
20
0.308594
30
0.500000
11
1.774414
21
0.335938
31
0.500000
0
LINE
8
0
62
0
10
2.416016
20
0.000000
30
0.500000
11
2.416016
21
0.933594
31
0.500000
0
LINE
8
0
62
0
10
2.416016
20
0.933594
30
0.500000
11
2.591797
21
0.933594
31
0.500000
0
LINE
8
0
62
0
10
2.591797
20
0.933594
30
0.500000
11
2.591797
21
0.000000
31
0.500000
0
LINE
8
0
62
0
10
2.591797
20
0.000000
30
0.500000
11
2.416016
21
0.000000
31
0.500000
0
LINE
8
0
62
0
10
2.688477
20
0.214844
30
0.500000
11
2.689453
21
0.249023
31
0.500000
0
LINE
8
0
62
0
10
2.689453
20
0.249023
30
0.500000
11
2.695313
21
0.282227
31
0.500000
0
LINE
8
0
62
0
10
2.695313
20
0.282227
30
0.500000
11
2.704102
21
0.312500
31
0.500000
0
LINE
8
0
62
0
10
2.704102
20
0.312500
30
0.500000
11
2.716797
21
0.340820
31
0.500000
0
LINE
8
0
62
0
10
2.716797
20
0.340820
30
0.500000
11
2.733398
21
0.368164
31
0.500000
0
LINE
8
0
62
0
10
2.733398
20
0.368164
30
0.500000
11
2.752930
21
0.392578
31
0.500000
0
LINE
8
0
62
0
10
2.752930
20
0.392578
30
0.500000
11
2.777344
21
0.416016
31
0.500000
0
LINE
8
0
62
0
10
2.777344
20
0.416016
30
0.500000
11
2.803711
21
0.437500
31
0.500000
0
LINE
8
0
62
0
10
2.803711
20
0.437500
30
0.500000
11
2.929688
21
0.437500
31
0.500000
0
LINE
8
0
62
0
10
2.929688
20
0.437500
30
0.500000
11
2.942383
21
0.436523
31
0.500000
0
LINE
8
0
62
0
10
2.942383
20
0.436523
30
0.500000
11
2.955078
21
0.435547
31
0.500000
0
LINE
8
0
62
0
10
2.955078
20
0.435547
30
0.500000
11
2.967773
21
0.432617
31
0.500000
0
LINE
8
0
62
0
10
2.967773
20
0.432617
30
0.500000
11
2.979492
21
0.429688
31
0.500000
0
LINE
8
0
62
0
10
2.979492
20
0.429688
30
0.500000
11
2.992188
21
0.424805
31
0.500000
0
LINE
8
0
62
0
10
2.992188
20
0.424805
30
0.500000
11
3.003906
21
0.418945
31
0.500000
0
LINE
8
0
62
0
10
3.003906
20
0.418945
30
0.500000
11
3.015625
21
0.413086
31
0.500000
0
LINE
8
0
62
0
10
3.015625
20
0.413086
30
0.500000
11
3.026367
21
0.405273
31
0.500000
0
LINE
8
0
62
0
10
3.026367
20
0.405273
30
0.500000
11
3.026367
21
0.471680
31
0.500000
0
LINE
8
0
62
0
10
3.026367
20
0.471680
30
0.500000
11
3.026367
21
0.484375
31
0.500000
0
LINE
8
0
62
0
10
3.026367
20
0.484375
30
0.500000
11
3.023438
21
0.496094
31
0.500000
0
LINE
8
0
62
0
10
3.023438
20
0.496094
30
0.500000
11
3.020508
21
0.505859
31
0.500000
0
LINE
8
0
62
0
10
3.020508
20
0.505859
30
0.500000
11
3.015625
21
0.515625
31
0.500000
0
LINE
8
0
62
0
10
3.015625
20
0.515625
30
0.500000
11
3.008789
21
0.523438
31
0.500000
0
LINE
8
0
62
0
10
3.008789
20
0.523438
30
0.500000
11
3.000977
21
0.530273
31
0.500000
0
LINE
8
0
62
0
10
3.000977
20
0.530273
30
0.500000
11
2.992188
21
0.536133
31
0.500000
0
LINE
8
0
62
0
10
2.992188
20
0.536133
30
0.500000
11
2.981445
21
0.541016
31
0.500000
0
LINE
8
0
62
0
10
2.981445
20
0.541016
30
0.500000
11
2.741211
21
0.541016
31
0.500000
0
LINE
8
0
62
0
10
2.741211
20
0.541016
30
0.500000
11
2.741211
21
0.681641
31
0.500000
0
LINE
8
0
62
0
10
2.741211
20
0.681641
30
0.500000
11
3.072266
21
0.681641
31
0.500000
0
LINE
8
0
62
0
10
3.072266
20
0.681641
30
0.500000
11
3.090820
21
0.668945
31
0.500000
0
LINE
8
0
62
0
10
3.090820
20
0.668945
30
0.500000
11
3.108398
21
0.656250
31
0.500000
0
LINE
8
0
62
0
10
3.108398
20
0.656250
30
0.500000
11
3.124023
21
0.643555
31
0.500000
0
LINE
8
0
62
0
10
3.124023
20
0.643555
30
0.500000
11
3.138672
21
0.629883
31
0.500000
0
LINE
8
0
62
0
10
3.138672
20
0.629883
30
0.500000
11
3.150391
21
0.616211
31
0.500000
0
LINE
8
0
62
0
10
3.150391
20
0.616211
30
0.500000
11
3.161133
21
0.601563
31
0.500000
0
LINE
8
0
62
0
10
3.161133
20
0.601563
30
0.500000
11
3.169922
21
0.586914
31
0.500000
0
LINE
8
0
62
0
10
3.169922
20
0.586914
30
0.500000
11
3.177734
21
0.571289
31
0.500000
0
LINE
8
0
62
0
10
3.177734
20
0.571289
30
0.500000
11
3.183594
21
0.554688
31
0.500000
0
LINE
8
0
62
0
10
3.183594
20
0.554688
30
0.500000
11
3.188477
21
0.537109
31
0.500000
0
LINE
8
0
62
0
10
3.188477
20
0.537109
30
0.500000
11
3.192383
21
0.518555
31
0.500000
0
LINE
8
0
62
0
10
3.192383
20
0.518555
30
0.500000
11
3.196289
21
0.498047
31
0.500000
0
LINE
8
0
62
0
10
3.196289
20
0.498047
30
0.500000
11
3.199219
21
0.476563
31
0.500000
0
LINE
8
0
62
0
10
3.199219
20
0.476563
30
0.500000
11
3.201172
21
0.453125
31
0.500000
0
LINE
8
0
62
0
10
3.201172
20
0.453125
30
0.500000
11
3.202148
21
0.428711
31
0.500000
0
LINE
8
0
62
0
10
3.202148
20
0.428711
30
0.500000
11
3.202148
21
0.402344
31
0.500000
0
LINE
8
0
62
0
10
3.202148
20
0.402344
30
0.500000
11
3.202148
21
0.203125
31
0.500000
0
LINE
8
0
62
0
10
3.202148
20
0.203125
30
0.500000
11
3.203125
21
0.174805
31
0.500000
0
LINE
8
0
62
0
10
3.203125
20
0.174805
30
0.500000
11
3.203125
21
0.148438
31
0.500000
0
LINE
8
0
62
0
10
3.203125
20
0.148438
30
0.500000
11
3.203125
21
0.122070
31
0.500000
0
LINE
8
0
62
0
10
3.203125
20
0.122070
30
0.500000
11
3.204102
21
0.096680
31
0.500000
0
LINE
8
0
62
0
10
3.204102
20
0.096680
30
0.500000
11
3.205078
21
0.071289
31
0.500000
0
LINE
8
0
62
0
10
3.205078
20
0.071289
30
0.500000
11
3.206055
21
0.046875
31
0.500000
0
LINE
8
0
62
0
10
3.206055
20
0.046875
30
0.500000
11
3.207031
21
0.023438
31
0.500000
0
LINE
8
0
62
0
10
3.207031
20
0.023438
30
0.500000
11
3.208008
21
0.000000
31
0.500000
0
LINE
8
0
62
0
10
3.208008
20
0.000000
30
0.500000
11
3.055664
21
0.000000
31
0.500000
0
LINE
8
0
62
0
10
3.055664
20
0.000000
30
0.500000
11
3.032227
21
0.047852
31
0.500000
0
LINE
8
0
62
0
10
3.032227
20
0.047852
30
0.500000
11
3.018555
21
0.037109
31
0.500000
0
LINE
8
0
62
0
10
3.018555
20
0.037109
30
0.500000
11
3.002930
21
0.027344
31
0.500000
0
LINE
8
0
62
0
10
3.002930
20
0.027344
30
0.500000
11
2.987305
21
0.018555
31
0.500000
0
LINE
8
0
62
0
10
2.987305
20
0.018555
30
0.500000
11
2.969727
21
0.011719
31
0.500000
0
LINE
8
0
62
0
10
2.969727
20
0.011719
30
0.500000
11
2.950195
21
0.006836
31
0.500000
0
LINE
8
0
62
0
10
2.950195
20
0.006836
30
0.500000
11
2.929688
21
0.002930
31
0.500000
0
LINE
8
0
62
0
10
2.929688
20
0.002930
30
0.500000
11
2.908203
21
0.000977
31
0.500000
0
LINE
8
0
62
0
10
2.908203
20
0.000977
30
0.500000
11
2.885742
21
0.000000
31
0.500000
0
LINE
8
0
62
0
10
2.885742
20
0.000000
30
0.500000
11
2.801758
21
0.000000
31
0.500000
0
LINE
8
0
62
0
10
2.801758
20
0.000000
30
0.500000
11
2.774414
21
0.019531
31
0.500000
0
LINE
8
0
62
0
10
2.774414
20
0.019531
30
0.500000
11
2.751953
21
0.041016
31
0.500000
0
LINE
8
0
62
0
10
2.751953
20
0.041016
30
0.500000
11
2.732422
21
0.065430
31
0.500000
0
LINE
8
0
62
0
10
2.732422
20
0.065430
30
0.500000
11
2.716797
21
0.090820
31
0.500000
0
LINE
8
0
62
0
10
2.716797
20
0.090820
30
0.500000
11
2.704102
21
0.119141
31
0.500000
0
LINE
8
0
62
0
10
2.704102
20
0.119141
30
0.500000
11
2.695313
21
0.149414
31
0.500000
0
LINE
8
0
62
0
10
2.695313
20
0.149414
30
0.500000
11
2.689453
21
0.180664
31
0.500000
0
LINE
8
0
62
0
10
2.689453
20
0.180664
30
0.500000
11
2.688477
21
0.214844
31
0.500000
0
LINE
8
0
62
0
10
2.857422
20
0.208984
30
0.500000
11
2.857422
21
0.221680
31
0.500000
0
LINE
8
0
62
0
10
2.857422
20
0.221680
30
0.500000
11
2.857422
21
0.234375
31
0.500000
0
LINE
8
0
62
0
10
2.857422
20
0.234375
30
0.500000
11
2.859375
21
0.246094
31
0.500000
0
LINE
8
0
62
0
10
2.859375
20
0.246094
30
0.500000
11
2.861328
21
0.257813
31
0.500000
0
LINE
8
0
62
0
10
2.861328
20
0.257813
30
0.500000
11
2.864258
21
0.268555
31
0.500000
0
LINE
8
0
62
0
10
2.864258
20
0.268555
30
0.500000
11
2.868164
21
0.279297
31
0.500000
0
LINE
8
0
62
0
10
2.868164
20
0.279297
30
0.500000
11
2.873047
21
0.289063
31
0.500000
0
LINE
8
0
62
0
10
2.873047
20
0.289063
30
0.500000
11
2.878906
21
0.298828
31
0.500000
0
LINE
8
0
62
0
10
2.878906
20
0.298828
30
0.500000
11
2.885742
21
0.307617
31
0.500000
0
LINE
8
0
62
0
10
2.885742
20
0.307617
30
0.500000
11
3.028320
21
0.307617
31
0.500000
0
LINE
8
0
62
0
10
3.028320
20
0.307617
30
0.500000
11
3.028320
21
0.139648
31
0.500000
0
LINE
8
0
62
0
10
3.028320
20
0.139648
30
0.500000
11
2.886719
21
0.139648
31
0.500000
0
LINE
8
0
62
0
10
2.886719
20
0.139648
30
0.500000
11
2.879883
21
0.147461
31
0.500000
0
LINE
8
0
62
0
10
2.879883
20
0.147461
30
0.500000
11
2.874023
21
0.156250
31
0.500000
0
LINE
8
0
62
0
10
2.874023
20
0.156250
30
0.500000
11
2.869141
21
0.165039
31
0.500000
0
LINE
8
0
62
0
10
2.869141
20
0.165039
30
0.500000
11
2.864258
21
0.174805
31
0.500000
0
LINE
8
0
62
0
10
2.864258
20
0.174805
30
0.500000
11
2.861328
21
0.185547
31
0.500000
0
LINE
8
0
62
0
10
2.861328
20
0.185547
30
0.500000
11
2.859375
21
0.196289
31
0.500000
0
LINE
8
0
62
0
10
2.859375
20
0.196289
30
0.500000
11
2.857422
21
0.208984
31
0.500000
0
LINE
8
0
62
0
10
3.264648
20
0.541016
30
0.500000
11
3.264648
21
0.681641
31
0.500000
0
LINE
8
0
62
0
10
3.264648
20
0.681641
30
0.500000
11
3.357422
21
0.681641
31
0.500000
0
LINE
8
0
62
0
10
3.357422
20
0.681641
30
0.500000
11
3.357422
21
0.866211
31
0.500000
0
LINE
8
0
62
0
10
3.357422
20
0.866211
30
0.500000
11
3.534180
21
0.866211
31
0.500000
0
LINE
8
0
62
0
10
3.534180
20
0.866211
30
0.500000
11
3.534180
21
0.681641
31
0.500000
0
LINE
8
0
62
0
10
3.534180
20
0.681641
30
0.500000
11
3.643555
21
0.681641
31
0.500000
0
LINE
8
0
62
0
10
3.643555
20
0.681641
30
0.500000
11
3.643555
21
0.541016
31
0.500000
0
LINE
8
0
62
0
10
3.643555
20
0.541016
30
0.500000
11
3.534180
21
0.541016
31
0.500000
0
LINE
8
0
62
0
10
3.534180
20
0.541016
30
0.500000
11
3.534180
21
0.254883
31
0.500000
0
LINE
8
0
62
0
10
3.534180
20
0.254883
30
0.500000
11
3.535156
21
0.235352
31
0.500000
0
LINE
8
0
62
0
10
3.535156
20
0.235352
30
0.500000
11
3.536133
21
0.216797
31
0.500000
0
LINE
8
0
62
0
10
3.536133
20
0.216797
30
0.500000
11
3.538086
21
0.200195
31
0.500000
0
LINE
8
0
62
0
10
3.538086
20
0.200195
30
0.500000
11
3.541016
21
0.185547
31
0.500000
0
LINE
8
0
62
0
10
3.541016
20
0.185547
30
0.500000
11
3.544922
21
0.171875
31
0.500000
0
LINE
8
0
62
0
10
3.544922
20
0.171875
30
0.500000
11
3.549805
21
0.159180
31
0.500000
0
LINE
8
0
62
0
10
3.549805
20
0.159180
30
0.500000
11
3.555664
21
0.149414
31
0.500000
0
LINE
8
0
62
0
10
3.555664
20
0.149414
30
0.500000
11
3.562500
21
0.139648
31
0.500000
0
LINE
8
0
62
0
10
3.562500
20
0.139648
30
0.500000
11
3.643555
21
0.139648
31
0.500000
0
LINE
8
0
62
0
10
3.643555
20
0.139648
30
0.500000
11
3.643555
21
0.000000
31
0.500000
0
LINE
8
0
62
0
10
3.643555
20
0.000000
30
0.500000
11
3.454102
21
0.000000
31
0.500000
0
LINE
8
0
62
0
10
3.454102
20
0.000000
30
0.500000
11
3.437500
21
0.016602
31
0.500000
0
LINE
8
0
62
0
10
3.437500
20
0.016602
30
0.500000
11
3.422852
21
0.033203
31
0.500000
0
LINE
8
0
62
0
10
3.422852
20
0.033203
30
0.500000
11
3.409180
21
0.050781
31
0.500000
0
LINE
8
0
62
0
10
3.409180
20
0.050781
30
0.500000
11
3.397461
21
0.068359
31
0.500000
0
LINE
8
0
62
0
10
3.397461
20
0.068359
30
0.500000
11
3.387695
21
0.085938
31
0.500000
0
LINE
8
0
62
0
10
3.387695
20
0.085938
30
0.500000
11
3.379883
21
0.103516
31
0.500000
0
LINE
8
0
62
0
10
3.379883
20
0.103516
30
0.500000
11
3.374023
21
0.122070
31
0.500000
0
LINE
8
0
62
0
10
3.374023
20
0.122070
30
0.500000
11
3.369141
21
0.141602
31
0.500000
0
LINE
8
0
62
0
10
3.369141
20
0.141602
30
0.500000
11
3.366211
21
0.158203
31
0.500000
0
LINE
8
0
62
0
10
3.366211
20
0.158203
30
0.500000
11
3.364258
21
0.174805
31
0.500000
0
LINE
8
0
62
0
10
3.364258
20
0.174805
30
0.500000
11
3.361328
21
0.193359
31
0.500000
0
LINE
8
0
62
0
10
3.361328
20
0.193359
30
0.500000
11
3.360352
21
0.211914
31
0.500000
0
LINE
8
0
62
0
10
3.360352
20
0.211914
30
0.500000
11
3.358398
21
0.232422
31
0.500000
0
LINE
8
0
62
0
10
3.358398
20
0.232422
30
0.500000
11
3.357422
21
0.252930
31
0.500000
0
LINE
8
0
62
0
10
3.357422
20
0.252930
30
0.500000
11
3.357422
21
0.274414
31
0.500000
0
LINE
8
0
62
0
10
3.357422
20
0.274414
30
0.500000
11
3.357422
21
0.296875
31
0.500000
0
LINE
8
0
62
0
10
3.357422
20
0.296875
30
0.500000
11
3.357422
21
0.541016
31
0.500000
0
LINE
8
0
62
0
10
3.357422
20
0.541016
30
0.500000
11
3.264648
21
0.541016
31
0.500000
0
LINE
8
0
62
0
10
3.733398
20
0.933594
30
0.500000
11
3.909180
21
0.933594
31
0.500000
0
LINE
8
0
62
0
10
3.909180
20
0.933594
30
0.500000
11
3.909180
21
0.752930
31
0.500000
0
LINE
8
0
62
0
10
3.909180
20
0.752930
30
0.500000
11
3.733398
21
0.752930
31
0.500000
0
LINE
8
0
62
0
10
3.733398
20
0.752930
30
0.500000
11
3.733398
21
0.933594
31
0.500000
0
LINE
8
0
62
0
10
3.733398
20
0.000000
30
0.500000
11
3.733398
21
0.681641
31
0.500000
0
LINE
8
0
62
0
10
3.733398
20
0.681641
30
0.500000
11
3.909180
21
0.681641
31
0.500000
0
LINE
8
0
62
0
10
3.909180
20
0.681641
30
0.500000
11
3.909180
21
0.000000
31
0.500000
0
LINE
8
0
62
0
10
3.909180
20
0.000000
30
0.500000
11
3.733398
21
0.000000
31
0.500000
0
LINE
8
0
62
0
10
4.005859
20
0.338867
30
0.500000
11
4.005859
21
0.365234
31
0.500000
0
LINE
8
0
62
0
10
4.005859
20
0.365234
30
0.500000
11
4.006836
21
0.390625
31
0.500000
0
LINE
8
0
62
0
10
4.006836
20
0.390625
30
0.500000
11
4.009766
21
0.416016
31
0.500000
0
LINE
8
0
62
0
10
4.009766
20
0.416016
30
0.500000
11
4.012695
21
0.439453
31
0.500000
0
LINE
8
0
62
0
10
4.012695
20
0.439453
30
0.500000
11
4.017578
21
0.462891
31
0.500000
0
LINE
8
0
62
0
10
4.017578
20
0.462891
30
0.500000
11
4.022461
21
0.484375
31
0.500000
0
LINE
8
0
62
0
10
4.022461
20
0.484375
30
0.500000
11
4.028320
21
0.505859
31
0.500000
0
LINE
8
0
62
0
10
4.028320
20
0.505859
30
0.500000
11
4.035156
21
0.526367
31
0.500000
0
LINE
8
0
62
0
10
4.035156
20
0.526367
30
0.500000
11
4.043945
21
0.546875
31
0.500000
0
LINE
8
0
62
0
10
4.043945
20
0.546875
30
0.500000
11
4.052734
21
0.566406
31
0.500000
0
LINE
8
0
62
0
10
4.052734
20
0.566406
30
0.500000
11
4.062500
21
0.585938
31
0.500000
0
LINE
8
0
62
0
10
4.062500
20
0.585938
30
0.500000
11
4.074219
21
0.605469
31
0.500000
0
LINE
8
0
62
0
10
4.074219
20
0.605469
30
0.500000
11
4.086914
21
0.624023
31
0.500000
0
LINE
8
0
62
0
10
4.086914
20
0.624023
30
0.500000
11
4.100586
21
0.643555
31
0.500000
0
LINE
8
0
62
0
10
4.100586
20
0.643555
30
0.500000
11
4.115234
21
0.662109
31
0.500000
0
LINE
8
0
62
0
10
4.115234
20
0.662109
30
0.500000
11
4.130859
21
0.681641
31
0.500000
0
LINE
8
0
62
0
10
4.130859
20
0.681641
30
0.500000
11
4.442383
21
0.681641
31
0.500000
0
LINE
8
0
62
0
10
4.442383
20
0.681641
30
0.500000
11
4.458984
21
0.661133
31
0.500000
0
LINE
8
0
62
0
10
4.458984
20
0.661133
30
0.500000
11
4.474609
21
0.641602
31
0.500000
0
LINE
8
0
62
0
10
4.474609
20
0.641602
30
0.500000
11
4.488281
21
0.622070
31
0.500000
0
LINE
8
0
62
0
10
4.488281
20
0.622070
30
0.500000
11
4.500977
21
0.602539
31
0.500000
0
LINE
8
0
62
0
10
4.500977
20
0.602539
30
0.500000
11
4.511719
21
0.583008
31
0.500000
0
LINE
8
0
62
0
10
4.511719
20
0.583008
30
0.500000
11
4.521484
21
0.563477
31
0.500000
0
LINE
8
0
62
0
10
4.521484
20
0.563477
30
0.500000
11
4.530273
21
0.544922
31
0.500000
0
LINE
8
0
62
0
10
4.530273
20
0.544922
30
0.500000
11
4.537109
21
0.526367
31
0.500000
0
LINE
8
0
62
0
10
4.537109
20
0.526367
30
0.500000
11
4.542969
21
0.506836
31
0.500000
0
LINE
8
0
62
0
10
4.542969
20
0.506836
30
0.500000
11
4.548828
21
0.486328
31
0.500000
0
LINE
8
0
62
0
10
4.548828
20
0.486328
30
0.500000
11
4.552734
21
0.463867
31
0.500000
0
LINE
8
0
62
0
10
4.552734
20
0.463867
30
0.500000
11
4.556641
21
0.441406
31
0.500000
0
LINE
8
0
62
0
10
4.556641
20
0.441406
30
0.500000
11
4.559570
21
0.416992
31
0.500000
0
LINE
8
0
62
0
10
4.559570
20
0.416992
30
0.500000
11
4.561523
21
0.392578
31
0.500000
0
LINE
8
0
62
0
10
4.561523
20
0.392578
30
0.500000
11
4.562500
21
0.366211
31
0.500000
0
LINE
8
0
62
0
10
4.562500
20
0.366211
30
0.500000
11
4.562500
21
0.338867
31
0.500000
0
LINE
8
0
62
0
10
4.562500
20
0.338867
30
0.500000
11
4.560547
21
0.286133
31
0.500000
0
LINE
8
0
62
0
10
4.560547
20
0.286133
30
0.500000
11
4.554688
21
0.237305
31
0.500000
0
LINE
8
0
62
0
10
4.554688
20
0.237305
30
0.500000
11
4.543945
21
0.190430
31
0.500000
0
LINE
8
0
62
0
10
4.543945
20
0.190430
30
0.500000
11
4.529297
21
0.146484
31
0.500000
0
LINE
8
0
62
0
10
4.529297
20
0.146484
30
0.500000
11
4.510742
21
0.105469
31
0.500000
0
LINE
8
0
62
0
10
4.510742
20
0.105469
30
0.500000
11
4.487305
21
0.067383
31
0.500000
0
LINE
8
0
62
0
10
4.487305
20
0.067383
30
0.500000
11
4.460938
21
0.032227
31
0.500000
0
LINE
8
0
62
0
10
4.460938
20
0.032227
30
0.500000
11
4.429688
21
0.000000
31
0.500000
0
LINE
8
0
62
0
10
4.429688
20
0.000000
30
0.500000
11
4.138672
21
0.000000
31
0.500000
0
LINE
8
0
62
0
10
4.138672
20
0.000000
30
0.500000
11
4.107422
21
0.032227
31
0.500000
0
LINE
8
0
62
0
10
4.107422
20
0.032227
30
0.500000
11
4.080078
21
0.067383
31
0.500000
0
LINE
8
0
62
0
10
4.080078
20
0.067383
30
0.500000
11
4.057617
21
0.105469
31
0.500000
0
LINE
8
0
62
0
10
4.057617
20
0.105469
30
0.500000
11
4.039063
21
0.146484
31
0.500000
0
LINE
8
0
62
0
10
4.039063
20
0.146484
30
0.500000
11
4.024414
21
0.190430
31
0.500000
0
LINE
8
0
62
0
10
4.024414
20
0.190430
30
0.500000
11
4.013672
21
0.237305
31
0.500000
0
LINE
8
0
62
0
10
4.013672
20
0.237305
30
0.500000
11
4.007813
21
0.286133
31
0.500000
0
LINE
8
0
62
0
10
4.007813
20
0.286133
30
0.500000
11
4.005859
21
0.338867
31
0.500000
0
LINE
8
0
62
0
10
4.185547
20
0.348633
30
0.500000
11
4.186523
21
0.378906
31
0.500000
0
LINE
8
0
62
0
10
4.186523
20
0.378906
30
0.500000
11
4.188477
21
0.407227
31
0.500000
0
LINE
8
0
62
0
10
4.188477
20
0.407227
30
0.500000
11
4.192383
21
0.434570
31
0.500000
0
LINE
8
0
62
0
10
4.192383
20
0.434570
30
0.500000
11
4.197266
21
0.458984
31
0.500000
0
LINE
8
0
62
0
10
4.197266
20
0.458984
30
0.500000
11
4.204102
21
0.482422
31
0.500000
0
LINE
8
0
62
0
10
4.204102
20
0.482422
30
0.500000
11
4.212891
21
0.503906
31
0.500000
0
LINE
8
0
62
0
10
4.212891
20
0.503906
30
0.500000
11
4.221680
21
0.523438
31
0.500000
0
LINE
8
0
62
0
10
4.221680
20
0.523438
30
0.500000
11
4.233398
21
0.541016
31
0.500000
0
LINE
8
0
62
0
10
4.233398
20
0.541016
30
0.500000
11
4.333008
21
0.541016
31
0.500000
0
LINE
8
0
62
0
10
4.333008
20
0.541016
30
0.500000
11
4.344727
21
0.522461
31
0.500000
0
LINE
8
0
62
0
10
4.344727
20
0.522461
30
0.500000
11
4.354492
21
0.502930
31
0.500000
0
LINE
8
0
62
0
10
4.354492
20
0.502930
30
0.500000
11
4.363281
21
0.481445
31
0.500000
0
LINE
8
0
62
0
10
4.363281
20
0.481445
30
0.500000
11
4.370117
21
0.458984
31
0.500000
0
LINE
8
0
62
0
10
4.370117
20
0.458984
30
0.500000
11
4.375977
21
0.434570
31
0.500000
0
LINE
8
0
62
0
10
4.375977
20
0.434570
30
0.500000
11
4.379883
21
0.408203
31
0.500000
0
LINE
8
0
62
0
10
4.379883
20
0.408203
30
0.500000
11
4.381836
21
0.380859
31
0.500000
0
LINE
8
0
62
0
10
4.381836
20
0.380859
30
0.500000
11
4.382813
21
0.351563
31
0.500000
0
LINE
8
0
62
0
10
4.382813
20
0.351563
30
0.500000
11
4.381836
21
0.322266
31
0.500000
0
LINE
8
0
62
0
10
4.381836
20
0.322266
30
0.500000
11
4.379883
21
0.293945
31
0.500000
0
LINE
8
0
62
0
10
4.379883
20
0.293945
30
0.500000
11
4.375977
21
0.266602
31
0.500000
0
LINE
8
0
62
0
10
4.375977
20
0.266602
30
0.500000
11
4.371094
21
0.239258
31
0.500000
0
LINE
8
0
62
0
10
4.371094
20
0.239258
30
0.500000
11
4.364258
21
0.213867
31
0.500000
0
LINE
8
0
62
0
10
4.364258
20
0.213867
30
0.500000
11
4.355469
21
0.188477
31
0.500000
0
LINE
8
0
62
0
10
4.355469
20
0.188477
30
0.500000
11
4.345703
21
0.164063
31
0.500000
0
LINE
8
0
62
0
10
4.345703
20
0.164063
30
0.500000
11
4.334961
21
0.139648
31
0.500000
0
LINE
8
0
62
0
10
4.334961
20
0.139648
30
0.500000
11
4.233398
21
0.139648
31
0.500000
0
LINE
8
0
62
0
10
4.233398
20
0.139648
30
0.500000
11
4.221680
21
0.161133
31
0.500000
0
LINE
8
0
62
0
10
4.221680
20
0.161133
30
0.500000
11
4.212891
21
0.184570
31
0.500000
0
LINE
8
0
62
0
10
4.212891
20
0.184570
30
0.500000
11
4.204102
21
0.208984
31
0.500000
0
LINE
8
0
62
0
10
4.204102
20
0.208984
30
0.500000
11
4.197266
21
0.234375
31
0.500000
0
LINE
8
0
62
0
10
4.197266
20
0.234375
30
0.500000
11
4.192383
21
0.260742
31
0.500000
0
LINE
8
0
62
0
10
4.192383
20
0.260742
30
0.500000
11
4.188477
21
0.289063
31
0.500000
0
LINE
8
0
62
0
10
4.188477
20
0.289063
30
0.500000
11
4.186523
21
0.318359
31
0.500000
0
LINE
8
0
62
0
10
4.186523
20
0.318359
30
0.500000
11
4.185547
21
0.348633
31
0.500000
0
LINE
8
0
62
0
10
4.659180
20
0.000000
30
0.500000
11
4.659180
21
0.681641
31
0.500000
0
LINE
8
0
62
0
10
4.659180
20
0.681641
30
0.500000
11
4.797852
21
0.681641
31
0.500000
0
LINE
8
0
62
0
10
4.797852
20
0.681641
30
0.500000
11
4.821289
21
0.632813
31
0.500000
0
LINE
8
0
62
0
10
4.821289
20
0.632813
30
0.500000
11
4.829102
21
0.639648
31
0.500000
0
LINE
8
0
62
0
10
4.829102
20
0.639648
30
0.500000
11
4.835938
21
0.645508
31
0.500000
0
LINE
8
0
62
0
10
4.835938
20
0.645508
30
0.500000
11
4.842773
21
0.651367
31
0.500000
0
LINE
8
0
62
0
10
4.842773
20
0.651367
30
0.500000
11
4.849609
21
0.656250
31
0.500000
0
LINE
8
0
62
0
10
4.849609
20
0.656250
30
0.500000
11
4.856445
21
0.660156
31
0.500000
0
LINE
8
0
62
0
10
4.856445
20
0.660156
30
0.500000
11
4.863281
21
0.664063
31
0.500000
0
LINE
8
0
62
0
10
4.863281
20
0.664063
30
0.500000
11
4.870117
21
0.667969
31
0.500000
0
LINE
8
0
62
0
10
4.870117
20
0.667969
30
0.500000
11
4.876953
21
0.670898
31
0.500000
0
LINE
8
0
62
0
10
4.876953
20
0.670898
30
0.500000
11
4.883789
21
0.672852
31
0.500000
0
LINE
8
0
62
0
10
4.883789
20
0.672852
30
0.500000
11
4.891602
21
0.674805
31
0.500000
0
LINE
8
0
62
0
10
4.891602
20
0.674805
30
0.500000
11
4.900391
21
0.676758
31
0.500000
0
LINE
8
0
62
0
10
4.900391
20
0.676758
30
0.500000
11
4.909180
21
0.678711
31
0.500000
0
LINE
8
0
62
0
10
4.909180
20
0.678711
30
0.500000
11
4.919922
21
0.679688
31
0.500000
0
LINE
8
0
62
0
10
4.919922
20
0.679688
30
0.500000
11
4.930664
21
0.680664
31
0.500000
0
LINE
8
0
62
0
10
4.930664
20
0.680664
30
0.500000
11
4.942383
21
0.680664
31
0.500000
0
LINE
8
0
62
0
10
4.942383
20
0.680664
30
0.500000
11
4.955078
21
0.681641
31
0.500000
0
LINE
8
0
62
0
10
4.955078
20
0.681641
30
0.500000
11
5.095703
21
0.681641
31
0.500000
0
LINE
8
0
62
0
10
5.095703
20
0.681641
30
0.500000
11
5.110352
21
0.662109
31
0.500000
0
LINE
8
0
62
0
10
5.110352
20
0.662109
30
0.500000
11
5.123047
21
0.643555
31
0.500000
0
LINE
8
0
62
0
10
5.123047
20
0.643555
30
0.500000
11
5.134766
21
0.625000
31
0.500000
0
LINE
8
0
62
0
10
5.134766
20
0.625000
30
0.500000
11
5.145508
21
0.606445
31
0.500000
0
LINE
8
0
62
0
10
5.145508
20
0.606445
30
0.500000
11
5.155273
21
0.587891
31
0.500000
0
LINE
8
0
62
0
10
5.155273
20
0.587891
30
0.500000
11
5.163086
21
0.569336
31
0.500000
0
LINE
8
0
62
0
10
5.163086
20
0.569336
30
0.500000
11
5.169922
21
0.550781
31
0.500000
0
LINE
8
0
62
0
10
5.169922
20
0.550781
30
0.500000
11
5.175781
21
0.532227
31
0.500000
0
LINE
8
0
62
0
10
5.175781
20
0.532227
30
0.500000
11
5.180664
21
0.512695
31
0.500000
0
LINE
8
0
62
0
10
5.180664
20
0.512695
30
0.500000
11
5.185547
21
0.492188
31
0.500000
0
LINE
8
0
62
0
10
5.185547
20
0.492188
30
0.500000
11
5.189453
21
0.470703
31
0.500000
0
LINE
8
0
62
0
10
5.189453
20
0.470703
30
0.500000
11
5.192383
21
0.448242
31
0.500000
0
LINE
8
0
62
0
10
5.192383
20
0.448242
30
0.500000
11
5.194336
21
0.423828
31
0.500000
0
LINE
8
0
62
0
10
5.194336
20
0.423828
30
0.500000
11
5.196289
21
0.398438
31
0.500000
0
LINE
8
0
62
0
10
5.196289
20
0.398438
30
0.500000
11
5.197266
21
0.373047
31
0.500000
0
LINE
8
0
62
0
10
5.197266
20
0.373047
30
0.500000
11
5.197266
21
0.345703
31
0.500000
0
LINE
8
0
62
0
10
5.197266
20
0.345703
30
0.500000
11
5.197266
21
0.000000
31
0.500000
0
LINE
8
0
62
0
10
5.197266
20
0.000000
30
0.500000
11
5.020508
21
0.000000
31
0.500000
0
LINE
8
0
62
0
10
5.020508
20
0.000000
30
0.500000
11
5.020508
21
0.358398
31
0.500000
0
LINE
8
0
62
0
10
5.020508
20
0.358398
30
0.500000
11
5.019531
21
0.388672
31
0.500000
0
LINE
8
0
62
0
10
5.019531
20
0.388672
30
0.500000
11
5.017578
21
0.417969
31
0.500000
0
LINE
8
0
62
0
10
5.017578
20
0.417969
30
0.500000
11
5.015625
21
0.443359
31
0.500000
0
LINE
8
0
62
0
10
5.015625
20
0.443359
30
0.500000
11
5.011719
21
0.467773
31
0.500000
0
LINE
8
0
62
0
10
5.011719
20
0.467773
30
0.500000
11
5.006836
21
0.489258
31
0.500000
0
LINE
8
0
62
0
10
5.006836
20
0.489258
30
0.500000
11
5.000977
21
0.508789
31
0.500000
0
LINE
8
0
62
0
10
5.000977
20
0.508789
30
0.500000
11
4.993164
21
0.526367
31
0.500000
0
LINE
8
0
62
0
10
4.993164
20
0.526367
30
0.500000
11
4.985352
21
0.541016
31
0.500000
0
LINE
8
0
62
0
10
4.985352
20
0.541016
30
0.500000
11
4.835938
21
0.541016
31
0.500000
0
LINE
8
0
62
0
10
4.835938
20
0.541016
30
0.500000
11
4.835938
21
0.000000
31
0.500000
0
LINE
8
0
62
0
10
4.835938
20
0.000000
30
0.500000
11
4.659180
21
0.000000
31
0.500000
0
LINE
8
0
62
0
10
5.275391
20
0.000000
30
0.500000
11
5.275391
21
0.139648
31
0.500000
0
LINE
8
0
62
0
10
5.275391
20
0.139648
30
0.500000
11
5.519531
21
0.139648
31
0.500000
0
LINE
8
0
62
0
10
5.519531
20
0.139648
30
0.500000
11
5.376953
21
0.349609
31
0.500000
0
LINE
8
0
62
0
10
5.376953
20
0.349609
30
0.500000
11
5.374023
21
0.353516
31
0.500000
0
LINE
8
0
62
0
10
5.374023
20
0.353516
30
0.500000
11
5.372070
21
0.357422
31
0.500000
0
LINE
8
0
62
0
10
5.372070
20
0.357422
30
0.500000
11
5.368164
21
0.362305
31
0.500000
0
LINE
8
0
62
0
10
5.368164
20
0.362305
30
0.500000
11
5.365234
21
0.367188
31
0.500000
0
LINE
8
0
62
0
10
5.365234
20
0.367188
30
0.500000
11
5.361328
21
0.372070
31
0.500000
0
LINE
8
0
62
0
10
5.361328
20
0.372070
30
0.500000
11
5.357422
21
0.377930
31
0.500000
0
LINE
8
0
62
0
10
5.357422
20
0.377930
30
0.500000
11
5.352539
21
0.383789
31
0.500000
0
LINE
8
0
62
0
10
5.352539
20
0.383789
30
0.500000
11
5.348633
21
0.390625
31
0.500000
0
LINE
8
0
62
0
10
5.348633
20
0.390625
30
0.500000
11
5.343750
21
0.397461
31
0.500000
0
LINE
8
0
62
0
10
5.343750
20
0.397461
30
0.500000
11
5.338867
21
0.403320
31
0.500000
0
LINE
8
0
62
0
10
5.338867
20
0.403320
30
0.500000
11
5.334961
21
0.409180
31
0.500000
0
LINE
8
0
62
0
10
5.334961
20
0.409180
30
0.500000
11
5.331055
21
0.415039
31
0.500000
0
LINE
8
0
62
0
10
5.331055
20
0.415039
30
0.500000
11
5.327148
21
0.419922
31
0.500000
0
LINE
8
0
62
0
10
5.327148
20
0.419922
30
0.500000
11
5.324219
21
0.424805
31
0.500000
0
LINE
8
0
62
0
10
5.324219
20
0.424805
30
0.500000
11
5.321289
21
0.429688
31
0.500000
0
LINE
8
0
62
0
10
5.321289
20
0.429688
30
0.500000
11
5.318359
21
0.433594
31
0.500000
0
LINE
8
0
62
0
10
5.318359
20
0.433594
30
0.500000
11
5.315430
21
0.437500
31
0.500000
0
LINE
8
0
62
0
10
5.315430
20
0.437500
30
0.500000
11
5.313477
21
0.441406
31
0.500000
0
LINE
8
0
62
0
10
5.313477
20
0.441406
30
0.500000
11
5.311523
21
0.445313
31
0.500000
0
LINE
8
0
62
0
10
5.311523
20
0.445313
30
0.500000
11
5.309570
21
0.448242
31
0.500000
0
LINE
8
0
62
0
10
5.309570
20
0.448242
30
0.500000
11
5.307617
21
0.451172
31
0.500000
0
LINE
8
0
62
0
10
5.307617
20
0.451172
30
0.500000
11
5.305664
21
0.454102
31
0.500000
0
LINE
8
0
62
0
10
5.305664
20
0.454102
30
0.500000
11
5.304688
21
0.456055
31
0.500000
0
LINE
8
0
62
0
10
5.304688
20
0.456055
30
0.500000
11
5.303711
21
0.458984
31
0.500000
0
LINE
8
0
62
0
10
5.303711
20
0.458984
30
0.500000
11
5.302734
21
0.460938
31
0.500000
0
LINE
8
0
62
0
10
5.302734
20
0.460938
30
0.500000
11
5.301758
21
0.462891
31
0.500000
0
LINE
8
0
62
0
10
5.301758
20
0.462891
30
0.500000
11
5.300781
21
0.464844
31
0.500000
0
LINE
8
0
62
0
10
5.300781
20
0.464844
30
0.500000
11
5.298828
21
0.467773
31
0.500000
0
LINE
8
0
62
0
10
5.298828
20
0.467773
30
0.500000
11
5.297852
21
0.470703
31
0.500000
0
LINE
8
0
62
0
10
5.297852
20
0.470703
30
0.500000
11
5.295898
21
0.473633
31
0.500000
0
LINE
8
0
62
0
10
5.295898
20
0.473633
30
0.500000
11
5.294922
21
0.476563
31
0.500000
0
LINE
8
0
62
0
10
5.294922
20
0.476563
30
0.500000
11
5.292969
21
0.479492
31
0.500000
0
LINE
8
0
62
0
10
5.292969
20
0.479492
30
0.500000
11
5.291016
21
0.482422
31
0.500000
0
LINE
8
0
62
0
10
5.291016
20
0.482422
30
0.500000
11
5.290039
21
0.485352
31
0.500000
0
LINE
8
0
62
0
10
5.290039
20
0.485352
30
0.500000
11
5.289063
21
0.488281
31
0.500000
0
LINE
8
0
62
0
10
5.289063
20
0.488281
30
0.500000
11
5.287109
21
0.491211
31
0.500000
0
LINE
8
0
62
0
10
5.287109
20
0.491211
30
0.500000
11
5.286133
21
0.494141
31
0.500000
0
LINE
8
0
62
0
10
5.286133
20
0.494141
30
0.500000
11
5.285156
21
0.496094
31
0.500000
0
LINE
8
0
62
0
10
5.285156
20
0.496094
30
0.500000
11
5.284180
21
0.499023
31
0.500000
0
LINE
8
0
62
0
10
5.284180
20
0.499023
30
0.500000
11
5.284180
21
0.500977
31
0.500000
0
LINE
8
0
62
0
10
5.284180
20
0.500977
30
0.500000
11
5.282227
21
0.507813
31
0.500000
0
LINE
8
0
62
0
10
5.282227
20
0.507813
30
0.500000
11
5.281250
21
0.513672
31
0.500000
0
LINE
8
0
62
0
10
5.281250
20
0.513672
30
0.500000
11
5.280273
21
0.518555
31
0.500000
0
LINE
8
0
62
0
10
5.280273
20
0.518555
30
0.500000
11
5.279297
21
0.524414
31
0.500000
0
LINE
8
0
62
0
10
5.279297
20
0.524414
30
0.500000
11
5.279297
21
0.529297
31
0.500000
0
LINE
8
0
62
0
10
5.279297
20
0.529297
30
0.500000
11
5.278320
21
0.534180
31
0.500000
0
LINE
8
0
62
0
10
5.278320
20
0.534180
30
0.500000
11
5.278320
21
0.538086
31
0.500000
0
LINE
8
0
62
0
10
5.278320
20
0.538086
30
0.500000
11
5.278320
21
0.542969
31
0.500000
0
LINE
8
0
62
0
10
5.278320
20
0.542969
30
0.500000
11
5.280273
21
0.566406
31
0.500000
0
LINE
8
0
62
0
10
5.280273
20
0.566406
30
0.500000
11
5.284180
21
0.587891
31
0.500000
0
LINE
8
0
62
0
10
5.284180
20
0.587891
30
0.500000
11
5.291992
21
0.607422
31
0.500000
0
LINE
8
0
62
0
10
5.291992
20
0.607422
30
0.500000
11
5.301758
21
0.625977
31
0.500000
0
LINE
8
0
62
0
10
5.301758
20
0.625977
30
0.500000
11
5.315430
21
0.642578
31
0.500000
0
LINE
8
0
62
0
10
5.315430
20
0.642578
30
0.500000
11
5.332031
21
0.657227
31
0.500000
0
LINE
8
0
62
0
10
5.332031
20
0.657227
30
0.500000
11
5.350586
21
0.669922
31
0.500000
0
LINE
8
0
62
0
10
5.350586
20
0.669922
30
0.500000
11
5.373047
21
0.681641
31
0.500000
0
LINE
8
0
62
0
10
5.373047
20
0.681641
30
0.500000
11
5.667969
21
0.681641
31
0.500000
0
LINE
8
0
62
0
10
5.667969
20
0.681641
30
0.500000
11
5.667969
21
0.541016
31
0.500000
0
LINE
8
0
62
0
10
5.667969
20
0.541016
30
0.500000
11
5.459961
21
0.541016
31
0.500000
0
LINE
8
0
62
0
10
5.459961
20
0.541016
30
0.500000
11
5.585938
21
0.353516
31
0.500000
0
LINE
8
0
62
0
10
5.585938
20
0.353516
30
0.500000
11
5.606445
21
0.324219
31
0.500000
0
LINE
8
0
62
0
10
5.606445
20
0.324219
30
0.500000
11
5.624023
21
0.296875
31
0.500000
0
LINE
8
0
62
0
10
5.624023
20
0.296875
30
0.500000
11
5.639648
21
0.273438
31
0.500000
0
LINE
8
0
62
0
10
5.639648
20
0.273438
30
0.500000
11
5.652344
21
0.250977
31
0.500000
0
LINE
8
0
62
0
10
5.652344
20
0.250977
30
0.500000
11
5.663086
21
0.231445
31
0.500000
0
LINE
8
0
62
0
10
5.663086
20
0.231445
30
0.500000
11
5.671875
21
0.213867
31
0.500000
0
LINE
8
0
62
0
10
5.671875
20
0.213867
30
0.500000
11
5.677734
21
0.199219
31
0.500000
0
LINE
8
0
62
0
10
5.677734
20
0.199219
30
0.500000
11
5.680664
21
0.186523
31
0.500000
0
LINE
8
0
62
0
10
5.680664
20
0.186523
30
0.500000
11
5.682617
21
0.181641
31
0.500000
0
LINE
8
0
62
0
10
5.682617
20
0.181641
30
0.500000
11
5.683594
21
0.175781
31
0.500000
0
LINE
8
0
62
0
10
5.683594
20
0.175781
30
0.500000
11
5.684570
21
0.170898
31
0.500000
0
LINE
8
0
62
0
10
5.684570
20
0.170898
30
0.500000
11
5.684570
21
0.165039
31
0.500000
0
LINE
8
0
62
0
10
5.684570
20
0.165039
30
0.500000
11
5.685547
21
0.159180
31
0.500000
0
LINE
8
0
62
0
10
5.685547
20
0.159180
30
0.500000
11
5.685547
21
0.154297
31
0.500000
0
LINE
8
0
62
0
10
5.685547
20
0.154297
30
0.500000
11
5.686523
21
0.148438
31
0.500000
0
LINE
8
0
62
0
10
5.686523
20
0.148438
30
0.500000
11
5.686523
21
0.142578
31
0.500000
0
LINE
8
0
62
0
10
5.686523
20
0.142578
30
0.500000
11
5.685547
21
0.120117
31
0.500000
0
LINE
8
0
62
0
10
5.685547
20
0.120117
30
0.500000
11
5.681641
21
0.098633
31
0.500000
0
LINE
8
0
62
0
10
5.681641
20
0.098633
30
0.500000
11
5.676758
21
0.078125
31
0.500000
0
LINE
8
0
62
0
10
5.676758
20
0.078125
30
0.500000
11
5.668945
21
0.059570
31
0.500000
0
LINE
8
0
62
0
10
5.668945
20
0.059570
30
0.500000
11
5.658203
21
0.042969
31
0.500000
0
LINE
8
0
62
0
10
5.658203
20
0.042969
30
0.500000
11
5.646484
21
0.027344
31
0.500000
0
LINE
8
0
62
0
10
5.646484
20
0.027344
30
0.500000
11
5.631836
21
0.012695
31
0.500000
0
LINE
8
0
62
0
10
5.631836
20
0.012695
30
0.500000
11
5.615234
21
0.000000
31
0.500000
0
LINE
8
0
62
0
10
5.615234
20
0.000000
30
0.500000
11
5.275391
21
0.000000
31
0.500000
0
ENDSEC
0
EOF
